Song name
# A B C D E F G H I J K L M N O P Q R S T U V W X Y Z

Smashing Pumpkins - Where The Boys Fear To Thread tab

Smashing Pumpkins - Where the boys fear to tread
Melon Collie and the Infinite Sadness
tabbed by uracompletetool

I did this tab because the ones that were up on the site
just didnt seem right

Tuning: Eb Ab Db Gb Bb Eb

Intro
palm muted
E--------------------|
B--------------------|
G--------------------|
D--------------------|
A--------------------|
E-10/0-0-0-0-0-0-0-0-|

Main Riff
E-----------------------------|
B-----------------------------|
G-----------------------------|
D-0---------------------------|
A----------------3------------|
E----4-4-0-0-0-0---1-3-3-3----|

Chorus
E-----------------------------------------|
B-----------------------------------------|
G-----------------------------------------|
D-5-4-3-3-2-3-3-2-3-3-3-3-3---------------|
A-5-4-3-3-2-3-3-2-3-3-3-3-3---------------|
E-3-2-1-1-0-1-1-0-1-1-1-1-1---------------|

thats basically it.just repeat each riff to the amount of times needed in the song and 
have the whole song. im open to all critisism,
just post it in the comments
Tap to rate this tab
 
# A B C D E F G H I J K L M N O P Q R S T U V W X Y Z