Song name
# A B C D E F G H I J K L M N O P Q R S T U V W X Y Z

Smashing Pumpkins - There It Goes tab

Standard Tuning EADGBe

Intro (bass 8 bars) followed by:

main riff:
Em        G/Em       Em        C
--------------------------------------0---|
----0--0------0--0-------0--0------0---0--|
-----0--0------0--0-----0-0--0----0-0-----|        play
---2--2------2--2------2---2-----2---2----|          twice
--2---------2---------2---------3---------|
-0---------3------------------------------|

then riff 2:

C                    Em
------0--------0------------0----------0----|
----1/-1-----1/-1------------0----------0---|     again
---0/---0---0/---0--------0/--0------0/--0--|        play
--2/-------2/------------2/---------2/------|          twice
-3--------3-------------2/---------2/-------|
-----------------------0----------0---------|

NB The "/"s indicate that these notes should be raked/almost strummed. If you know the 
then you'll know what I mean.

Here are the chords for the chorus:

       E A D G B e
C      x 3 2 0 1 0
G/C    3 2 0 0 1 0
Em     0 2 2 0 0 0

Following this progression:
C,G/C,Em
Em,G/C,C     again repeat twice


Thats all you need really, other than the eBow solo which I'm not sure about yet. Listen 
the song to figure out the order.

Thanks,
Locky

PS please visit my band's myspace - www.myspace.com/somatozed.
Tap to rate this tab
 
# A B C D E F G H I J K L M N O P Q R S T U V W X Y Z