Song name
# A B C D E F G H I J K L M N O P Q R S T U V W X Y Z

Smashing Pumpkins - Set The Ray To Jerry tab

Fig1 (guitar)
|------------------------------------|
|-4--4--4--4--4--4--4--4-----5--5----|
|---4--4--4--4--4--4--4--4-----------|
|------------------------------------|
|------------------------------------|
|------------------------------------|

Fig2 (guitar)
|----2------2------2------------|
|------4------4------4-5-4-5-4--|
|--4-----4------4---------------|
|-------------------------------|
|-------------------------------|
|-------------------------------|


Fig3 (bass)
|-------------------------------------------------------|
|-------------------------------------------------------|
|------------------------------4--4-4-4-----------------|
|-0-4-4-4--7--7-7-7-7--0-2-2-2----------0-0-0-0-0-0-0-0-|


Fig4 (bass)
|------------------------------------------|
|------------------------------------------|
|------------------------------------------|
|-0-4-4-4--7--7-7-7-7--0-2-2-2--2-4-4-4-4--|

Fig5 (bass)
|-----------------------------------------|
|-----------------------------------------|
|----------------------4-4-4-4-4----------|
|-0-4-4-4--7--7-7-7-7------------0-0-0-0--|
Tap to rate this tab
# A B C D E F G H I J K L M N O P Q R S T U V W X Y Z