Song name
# A B C D E F G H I J K L M N O P Q R S T U V W X Y Z

Smashing Pumpkins - Gossamer tab

Song: Gossamer (Intro)
Band: Smashing Pumpkins
Venue: Zeitgeist Tour, Live in Paris, Grand Rex 2007
Tuning: Dropped Db (Db Ab Db Gb Bb Eb)

Note: Props go to spamrobot of netphoria.org


Figure 1/Intro

Eb|----------------------------------|
Bb|---9-10---------------------------|
Gb|--------9-10-9h10p9\7-9-7h9p7\5---|  x8
Db|----------------------------------|
Ab|----------------------------------|
Db|-0--------------------------------|

Figure 2 (Part A)

Eb|---------------------------------------------|
Bb|---------------------------------------------|
Gb|---------------------------------------------|
Db|-----------------------------12-14-15--------|
Ab|-----------------7-8-10-12-15----------------|
Db|-0-2-3-5-7-10-12-----------------------------|

Figure 2 (Part B)

Eb|----------------------------------------------------------|
Bb|----------------------------------------------------------|
Gb|-12-14-12h14p12\10-12-10h12p10\9-10-9h10p9--9~-9p7\5h7----|
Db|----------------------------------------------------------|
Ab|----------------------------------------------------------|
Db|--------------------------------------------------------0-|
                                                                  x2
Eb|----------------------------------------------------------|
Bb|----------------------------------------------------------|
Gb|-14-12-14-9-10-9h10p9\7-9-7h9p7\5-7-5h7p5\2-5~-2h5/7------|
Db|----------------------------------------------------------|
Ab|----------------------------------------------------------|
Db|-----------------------------------------------------0----|

(play all of figure 2 twice)
Tap to rate this tab
# A B C D E F G H I J K L M N O P Q R S T U V W X Y Z