Song name
# A B C D E F G H I J K L M N O P Q R S T U V W X Y Z

Smashing Pumpkins - United States Live tab

Song: United States (Intro)
Band: Smashing Pumpkins
Venue: Zeitgeist Tour, Live in Paris, Grand Rex 2007
Tuning: Dropped Db (Db Ab Db Gb Bb Eb)

Tabbed off the youtube video, so minus the WOOO between every 5 chords, it sounds perty correct to me.

Figure 1/Intro

Eb|------------------------|
Bb|------------------------|
Gb|-0-0-0-0-0----0-0-0-0-0-|
Db|-0-0-0-0-0----0-0-0-0-0-|  (first few times)
Ab|-0-0-0-0-0----0-0-0-0-0-|
Db|-0-0-0-0-0----0-0-0-0-0-|

Figure 2/Intro

Eb|------------------------|
Bb|------------------------|
Gb|------------------------|
Db|-7-7-7-7-7----7-7-7-7-7-|  (last few times)
Ab|-5-5-5-5-5----4-4-4-4-4-|
Db|-x-x-x-x-x----x-x-x-x-x-|

Figure 3/Intro

Eb|----------------------------|
Bb|----------------------------|
Gb|-0-0-0-0--------------------|
Db|-0-0-0-0--------------------|
Ab|-0-0-0-0-9b-12b--4-8b-11b---|
Db|-0-0-0-0--------------------|

Figure 4

Eb|------------------------|
Bb|------------------------|
Gb|------------------------|
Db|------------------------|  (repeat for as long as you see necessary)
Ab|-5-9b-12b----4--8b-11b--|
Db|------------------------|
Tap to rate this tab
# A B C D E F G H I J K L M N O P Q R S T U V W X Y Z