Song name
# A B C D E F G H I J K L M N O P Q R S T U V W X Y Z

Smashing Pumpkins - Zeitgeist tab

Tabs for every single song on Zeitgiest some found on other websites but
everything else from UG. These websites are

www.spfc.com
www.0bscured.com
Ttabs.com

Some of those songs are really tough but sound great played well so good luck but
the strumming for some of the tabs is not shone. Im pretty sure that these tabs
are correct. The Following artists work is in these tabs and they must be
recognized.

Doomsday Clock - Leah Bush                 - (www.spfc.com)
7 Shades Of Black - bgoold@gmail.com       - (www.0bscured.com)
Bleeding The Orchid - bgoold@gmail.com     - (www.0bscured.com)
That's The Way (My Love Is) - zamarguitar
Tarantula - Chad Corgan
Starz - Leah Bush                          - (www.spfc.com)
United States - redburstibanez@yahoo.com
Neverlost - bgoold@gmail.com               - (www.0bscured.com)
Bring The Light - bgoold@gmail.com
(Come On) Let's Go! - PumpkinHead94
For God And Country - Unknown
Pomp And Circumstances - Rincewind         - (www.spfc.com)


************************************************************
------------------------------------------------------------
Track 1. Doomsday Clock
------------------------------------------------------------


DOOMSDAY CLOCK
                      As recorded by The Smashing Pumpkins
                         (From the 2007 Album ZEITGEIST)

Words and Music by Billy Corgan
Transcribed by Leah Bush

Gtr I (Db Ab Db Gb Bb Eb) - 'Untitled'
Gtr II (Db Ab Db Gb Bb Eb) - 'Untitled'

   Intro
    Q=100
    D5                                F5                G5    B5
   4/4
    Gtr I
||----------------------------------|----------------------------------||
||o---------------------------------|---------------------------------o||
||----------------------------------|----------------------------------||
||----------------------------------|----------------------------------||
||o---------------------------------|---------------------------------o||
||--0-0-0-0-0-0-0-0-0-0-0-0-0-0-0-0-|-3-3-3-3-3-3-3-3-5-5-5-5-9-9-9-9--||


  $
  D5                                F5              G5      B5
|---------------------------------|---------------------------------|
|---------------------------------|---------------------------------|
|---------------------------------|---------------------------------|
|---------------------------------|---------------------------------|
|---------------------------------|---------------------------------|
|-0-0-0-0-0-0-0-0-0-0-0-0-0-0-0-0-|-3-3-3-3-3-3-3-3-5-5-5-5-9-9-9-9-|
|
| Gtr II
|---------------------------------|---------------------------------|
|---------------------------------|---------------------------------|
|---------------------------------|---------------------------------|
|---------------------------------|---------------------------------|
|---------------------------------|---------------------------------|
|-0-------------------------------|-3---------------2-------9-------|


  D5                                   F5                 G5          B5
|------------------------------------|----------------------------------------|
|------------------------------------|----------------------------------------|
|------------------------------------|----------------------------------------|
|------------------------------------|----------------------------------------|
|------------------------------------|----------------------------------------|
|-0-0-0-0-0-0-0-0-0-0-0-0--0--0--0-0-|---3--3-3-3-3-3-3-3---5---5-5-5-9-9-9-9-|
|
| Gtr II
|-------------------------------17---|-(17)---------------(17)\---------------|
|------------------------------------|----------------------------------------|
|------------------------------------|----------------------------------------|
|------------------------------------|----------------------------------------|
|------------------------------------|----------------------------------------|
|-0-----------------------(0)--------|----------------------------------------|


    D5                                F5              G5      B5
    Gtrs I, II
                                                                        4x
||----------------------------------|-----------------------------------||
||o---------------------------------|----------------------------------o||
||----------------------------------|-----------------------------------||
||----------------------------------|-----------------------------------||
||o---------------------------------|----------------------------------o||
||--0-0-0-0-0-0-0-0-0-0-0-0-0-0-0-0-|-3-3-3-3-3-3-3-3-5-5-5-5-9-9-9-9---||


 Pre-Chorus
  Bb5
|---------------------------------|
|---------------------------------|
|---------------------------------|
|-8-8-8-8-8-8-8-8-8-8-8-8-8-8-8-8-|
|-8-8-8-8-8-8-8-8-8-8-8-8-8-8-8-8-|
|-8-8-8-8-8-8-8-8-8-8-8-8-8-8-8-8-|


  Dm
|-------------------------------------------------|
|-------------------------------------------------|
|-10-10-10-10-10-10-10-10-10-10-10-10-10-10-10-10-|
|--0--0--0--0--0--0--0--0--0--0--0--0--0--0--0--0-|
|--8--8--8--8--8--8--8--8--8--8--8--8--8--8--8--8-|
|--0--0--0--0--0--0--0--0--0--0--0--0--0--0--0--0-|


                                                       To Coda
  C5                                                   A5   Amadd9
|----------------------------------------------------|-0----0----|
|----------------------------------------------------|-x----0----|
|--0--0--0--0--0--0--0--0--0--0--0--0--0--0--0--(0)\-|-x----5----|
|-10-10-10-10-10-10-10-10-10-10-10-10-10-10-10-(10)\-|-7----7----|
|-10-10-10-10-10-10-10-10-10-10-10-10-10-10-10-(10)\-|-7----7----|
|-10-10-10-10-10-10-10-10-10-10-10-10-10-10-10-(10)\-|-7----7----|


  D5                F5      Bb5       Bb5              C#5     E5
|-----------------------------------|-----------------------------|
|-----------------------------------|-----------------------------|
|-----------------------------------|-----------------------------|
|-----------------------------------|------------------6-6-6-6-9--|
|-------------------3-3-3-3-8-8-(8)-|-/8-8-8-8-8-8-8-8-4-4-4-4-7--|
|-0-0-0-0-0-0-0-0-0-3-3-3-3S8-8-(8)-|-/8-8-8-8-8-8-8-8------------|


  D5                F5      Bb5                        C#5     A5
|-----------------------------------|---------------------------------|
|-----------------------------------|---------------------------------|
|-----------------------------------|---------------------------------|
|-----------------------------------|------------------6-6-6-6--------|
|-------------------3-3-3-3-8-8-(8)-|-/8-8-8-8-8-8-8-8-4-4-4-4-7-7-7--|
|-0-0-0-0-0-0-0-0-0-3-3-3-3S8-8-(8)-|-/8-8-8-8-8-8-8-8---------7-7-7--|


   Chorus
    D5                BbD5F5   A5                 C5 D5G5
||---------------------------|------------------------------||
||o--------------------------|-----------------------------o||
||---------------------------|------------------------------||
||--------------------8---3--|-/7-7-7-7-7-7-7-7-7-10---5----||
||o-------------------8---3--|-/7-7-7-7-7-7-7-7-7-10---5---o||
||--0-0-0-0-0-0-0-0-0-8-0-3--|-/7-7-7-7-7-7-7-7-7-10-0-5----||


                                               D.S. al Coda
  D5                BbD5F5   A5                C5 D5G5   D5
|--------------------------|---------------------------|-------|
|--------------------------|---------------------------|-------|
|--------------------------|---------------------------|-------|
|-------------------8---3--|-7-7-7-7-7-7-7-7-7-10---5--|-------|
|-------------------8---3--|-7-7-7-7-7-7-7-7-7-10---5--|-------|
|-0-0-0-0-0-0-0-0-0-8-0-3--|-7-7-7-7-7-7-7-7-7-10-0-5--|-0-----|


    &
    D5                BbD5F5   A5                C5 D5G5
                                                           4x
||---------------------------|-----------------------------||
||o--------------------------|----------------------------o||
||---------------------------|-----------------------------||
||--------------------8---3--|-7-7-7-7-7-7-7-7-7-10---5----||
||o-------------------8---3--|-7-7-7-7-7-7-7-7-7-10---5---o||
||--0-0-0-0-0-0-0-0-0-8-0-3--|-7-7-7-7-7-7-7-7-7-10-0-5----||


 Bridge I
  D5                N.C.
|----------|----------------------------------------|
|----------|----------------------------------------|
|----------|----------------------------------------|
|----------|----------------------------------------|
|----------|----------------------------------------|
|-0--------|-(0)----<1>-<1>-<2>-<2>-<3>-<4>-<5>-<7>-|


    D5F5        D5              F5              G5  A5
    PM----------------------------------------------------|
||--------------------------|-----------------------------|
||o-------------------------|-----------------------------|
||--------------------------|-----------------------------|
||--------------------------|-----------------------------|
||o-------------------------|-----------------------------|
||--0-3-3-3-3-3-0-0-0-0-0-0-|-0-3-3-3-3-3-0-0-0-5-5-7-7---|


  D5F5        D5
                           2/4
  PM--------------------------------------------|
|-------------------------|---------------------|
|-------------------------|-----------------o---|
|-------------------------|---------------------|
|-------------------------|---------------------|
|-------------------------|-----------------o---|
|-0-3-3-3-3-3-0-0-0-0-0-0-|-0-0-0-0-0-0-0-0-----|


   Bridge II
                           F5         C5
   4/4
||-----------------------------------------------|
||o----------------------------------------------|
||-----------------------------------------------|
||-----------------------------------------------|
||o----------------------------------------------|
||--12-12-12-12-12-12-12-0-15-15-15-0-10-10-10-0-|


  Bb5             C5          C#5
|------------------------------------------||
|-----------------------------------------o||
|------------------------------------------||
|------------------------------------------||
|-----------------------------------------o||
|-8-8-8-8-8-8-8-8-10-10-10-10-11-11-11-11--||


  D5                     F5         C5
|----------------------------------------------|
|----------------------------------------------|
|----------------------------------------------|
|----------------------------------------------|
|----------------------------------------------|
|-12-12-12-12-12-12-12-0-15-15-15-0-10-10-10-0-|


  Bb5             C5          C#5   D5
|-----------------------------------------|
|-----------------------------------------|
|-----------------------------------------|
|-----------------------------------------|
|-----------------------------------------|
|-8-8-8-8-8-8-8-8-10-10-10-10-11-11-0-(0)-|


  G5            D5    C5   G5            D5    C5
|------------------------|------------------------|
|------------------------|------------------------|
|------------------------|------------------------|
|---------------------5--|---------------------5--|
|---------------------3--|---------------------3--|
|-5-5-5-5-5-3-5-0-0-0----|-5-5-5-5-5-3-5-0-0-0----|


  G5        F5G5D5      G5 G#5A5 Bb5
 3/4                   4/4
|---------------------|--------------|
|---------------------|--------------|
|---------------------|-7--8--9--10--|
|---------------------|-5--6--7---8--|
|---------------------|-5--6--7---8--|
|-5-5-5-5-5-3-5-0-0-0-|-5--6--7---8--|


   Outro
    D5                BbD5F5   A5                C5 D5G5
                                                           5x
||---------------------------|-----------------------------||
||o--------------------------|----------------------------o||
||---------------------------|-----------------------------||
||--------------------8---3--|-7-7-7-7-7-7-7-7-7-10---5----||
||o-------------------8---3--|-7-7-7-7-7-7-7-7-7-10---5---o||
||--0-0-0-0-0-0-0-0-0-8-0-3--|-7-7-7-7-7-7-7-7-7-10-0-5----||


  D5                BbD5F5   A5                C5 D5G5   D5
|--------------------------|---------------------------|--------------*|
|--------------------------|---------------------------|--------------*|
|--------------------------|---------------------------|--------------*|
|-------------------8---3--|-7-7-7-7-7-7-7-7-7-10---5--|-7--(7)\------*|
|-------------------8---3--|-7-7-7-7-7-7-7-7-7-10---5--|-5--(5)\------*|
|-0-0-0-0-0-0-0-0-0-8-0-3--|-7-7-7-7-7-7-7-7-7-10-0-5--|-0--(0)\------*|

************************************************************
------------------------------------------------------------
Track 2. 7 Shades Of Black
------------------------------------------------------------

--title: 7 shades of black
--release: zeitgeist
--last updated: 07.08.07

--transcription by: bgoold@gmail.com
--website: http://www.0bscured.com

--tuning: Db Gb B E Ab Db

--INTRO
|-------------------------------------------------------------------------------|
|-------------------------------------------------------------------------------|
|-------------------------------------------------------------------------------|
|-5-5--5-5--5-5--5-5--5--5--6-6--6-6--6-6--6-6--6--6--7-7--7-7--7-7--7-7--7--7--|
|-5-5--5-5--5-5--5-5--5--5--6-6--6-6--6-6--6-6--6--6--7-7--7-7--7-7--7-7--7--7--|
|-3-3--3-3--3-3--3-3--3--3--4-4--4-4--4-4--4-4--4--4--5-5--5-5--5-5--5-5--5--5--|

|------------------------------------------------------------------------------------------|
|------------------------------------------------------------------------------------------|
|------------------------------------------------------------------------------------------|
|------------------------------------------------------------------------------------------|
|------------------------------------------------------------------------------------------|
|-0h8-8-8-0h8-8-8-0h8-8-0h7-7-7-0h7-7-7-0h10-10-0h8-8-8-0h8-8-8-0h8-8-0h7-7-7-0h10-10--/\--|

 Lead - Play with whammy set to 2 octaves higher
|-12~~~~~~--11~~~~~~\--12~~~~-12b14r12-11~~~~~~\--|
|-------------------------------------------------|
|-------------------------------------------------|
|-------------------------------------------------|
|-------------------------------------------------|
|-------------------------------------------------|


--VERSE
|------------------------------------------------------------------------------------------|
|------------------------------------------------------------------------------------------|
|------------------------------------------------------------------------------------------|
|------------------------------------------------------------------------------------------|
|------------------------------------------------------------------------------------------|
|-0h8-8-8-0h8-8-8-0h8-8-0h7-7-7-0h7-7-7-0h10-10-0h8-8-8-0h8-8-8-0h8-8-0h7-7-7-0h10-10--/\--|


--PRECHORUS
|------------------------------------------------------------------------------------------|
|------------------------------------------------------------------------------------------|
|------------------------------------------------------------------------------------------|
|------------------------------------------------------------------------------------------|
|------------------------------------------------------------------------------------------|
|-0h8-8-8-0h8-8-8-0h8-8-0h7-7-7-0h7-7-7-0h10-10-0h8-8-8-0h8-8-8-0h8-8-0h7-7-7-0h10-10--/\--|


--CHORUS
|-------------------------------------------------------------------------------------|
|-------------------------------------------------------------------------------------|
|--------------------------------------------------------------------------------4----|
|---------------------------------------------------------------------------5----4----|
|---------------------------------------------------------------------------5----2----|
|-0h12-12-12-0h12-12-12-0h12-12-0h8-8-8-0h8-8-8-0h8-8-0h5-5-5-0h5-5-5-0h5-5-3---------|

 ---------------------------------------------------------------------------------------------|
----------------------------------------------------------------------------------------------|
----------------------------------------------------------4-----------------------------------|
-----------------------------------------------------5----4-----------------------------------|
-----------------------------------------------------5----2-----------------------------------|
-0h12-12-12-0h12-12-12-0h12-12-0h8-8-8-0h8-8-8-0h8-8-3---------0h12-12-12-0h12-12-12-0h12-12--|

 Lead fill
|-------12b14r12-11~~-12~~\--|
|-10/12----------------------|
|----------------------------|
|----------------------------|
|----------------------------|
|----------------------------|

 Guitar 1
|---------------|
|---------------|
|---------4-----|
|--5------4-----|
|--5------2-----|
|--3------------|
|Guitar 2
|---------------|
|---------------|
|-/12----/11----|
|---------------|
|---------------|
|---------------|


--BRIDGE
|----------------------------------------------------------|
|----------------------------------------------------------|
|----------------------------------------------------------|
|----------------------------------------------------------|
|----------------------------------------------------------|
|-7--5--7--0--10-7-8--8--5--5--7--5--7--0--10-7-8~~--11~~--|

|----------------------------------------------------------|
|----------------------------------------------------------|
|----------------------------------------------------------|
|----------------------------------------------------------|
|----------------------------------------------------------|
|-7--5--7--0--10-7-8--8--5--5--5--3--5--0-8-0--10~~--11~~--|

 Lead
|--------------------------------------------------------------------|
|-12~~~~-13~~-10~~-12~~~~-13~~-16~~-12~~~~-13~~-10~~~~~~-15~~-16~~~~-|
|--------------------------------------------------------------------|
|--------------------------------------------------------------------|
|--------------------------------------------------------------------|
|--------------------------------------------------------------------|


--VERSE
|------------------------------------------------------------------------------------------|
|------------------------------------------------------------------------------------------|
|------------------------------------------------------------------------------------------|
|------------------------------------------------------------------------------------------|
|------------------------------------------------------------------------------------------|
|-0h8-8-8-0h8-8-8-0h8-8-0h7-7-7-0h7-7-7-0h10-10-0h8-8-8-0h8-8-8-0h8-8-0h7-7-7-0h10-10--/\--|


--PRECHORUS
|------------------------------------------------------------------------------------------|
|------------------------------------------------------------------------------------------|
|------------------------------------------------------------------------------------------|
|------------------------------------------------------------------------------------------|
|------------------------------------------------------------------------------------------|
|-0h8-8-8-0h8-8-8-0h8-8-0h7-7-7-0h7-7-7-0h10-10-0h8-8-8-0h8-8-8-0h8-8-0h7-7-7-0h10-10--/\--|


--CHORUS
|---------------------------------------------------|
|---------------------------------------------------|
|------4---------------------------------------4----|
|-5----4----------------------------------5----4----|
|-5----2----------------------------------5----2----|
|-3---------0h12-12-12-0h12-12-12-0h12-12-3---------|

 -------------------------------------------------------------------------------------|
 -------------------------------------------------------------------------------------|
 --------------------------------------------------------------------------------4----|
 ---------------------------------------------------------------------------5----4----|
 ---------------------------------------------------------------------------5----2----|
 -0h12-12-12-0h12-12-12-0h12-12-0h8-8-8-0h8-8-8-0h8-8-0h5-5-5-0h5-5-5-0h5-5-3---------|

 -----------------------------------------------------|
 -----------------------------------------------------|
 -----------------------------------------------------|
 -----------------------------------------------------|
 -----------------------------------------------------|
 -0h12-12-12-0h12-12-12-0h12-12-0h8-8-8-0h8-8-8-0h8-8-|

 Lead fill
|-------12b14r12-11~~-12~~\--|
|-10/12----------------------|
|----------------------------|
|----------------------------|
|----------------------------|
|----------------------------|

 Guitar 1
|---------------|
|---------------|
|---------4-----|
|--5------4-----|
|--5------2-----|
|--3------------|
|Guitar 2
|---------------|
|---------------|
|-/12----/11----|
|---------------|
|---------------|
|---------------|


--SOLO
|---------------------------------------------|
|---------------------------------------------|
|---------------------------------------------|
|-----5-5-----5-5-----5-----4-4-----3-3--2----|
|-----5-5-----5-5-----5-----4-4-----3-3--2----|
|-0h3-3-3-0h3-3-3-0h3-3-0h2-2-2-0h1-1-1--0----|

--Lead

|------------------------------------------------------------------|
|-/12-11~~~~-10~~-8-10~~~~gb12--/12-11~~-10~~--8-10b11r10p8\5~~~~~-|
|------------------------------------------------------------------|
|------------------------------------------------------------------|
|------------------------------------------------------------------|
|------------------------------------------------------------------|

 -18~~~~-18h19p18\17--17h18p17\16--16h17p16\15--|
 -----------------------------------------------|
 -----------------------------------------------|
 -----------------------------------------------|
 -----------------------------------------------|
 -----------------------------------------------|

Lead 2

|-------------------------------------------------------------------|
|-------------------------------/15-14~~-13~~-11-13b14r13p11\8~~~~--|
|-------------------------------------------------------------------|
|-------------------------------------------------------------------|
|-------------------------------------------------------------------|
|-------------------------------------------------------------------|

 -21~~~~-21h22p21\20--20h21p20\19--19h20p19\18--|
 -----------------------------------------------|
 -----------------------------------------------|
 -----------------------------------------------|
 -----------------------------------------------|
 -----------------------------------------------|


--BRIDGE
|----------------------------------------------------------|
|----------------------------------------------------------|
|----------------------------------------------------------|
|----------------------------------------------------------|
|----------------------------------------------------------|
|-7--5--7--0--10-7-8--8--5--5--7--5--7--0--10-7-8~~--11~~--|

|--------------------------------------------------------------|
|--------------------------------------------------------------|
|--------------------------------------------------------------|
|--------------------------------------------------------------|
|--------------------------------------------------------------|
|-7--5--7--0--10-7-8--8--5--5--5--3--5--0-8-0--10~~--11~~--4~~-|

|-------------------------------------------------------------------------------|
|-------------------------------------------------------------------------------|
|-------------------------------------------------------------------------------|
|-7-7--7-7--7-7--7-7--7--7--8-8--8-8--8-8--8-8--8--8--9-9--9-9--9-9--9-9--9--9--|
|-7-7--7-7--7-7--7-7--7--7--8-8--8-8--8-8--8-8--8--8--9-9--9-9--9-9--9-9--9--9--|
|-5-5--5-5--5-5--5-5--5--5--6-6--6-6--6-6--6-6--6--6--7-7--7-7--7-7--7-7--7--7--|

 Lead
|-----------------------------------------------------------------------------|
|-12~~~~-13~~-10~~-12~~~~-13~~-16~~-12~~~~-13~~-10~~~~~~-15~~-16~~-9~~-10~~~~-|
|-----------------------------------------------------------------------------|
|-----------------------------------------------------------------------------|
|-----------------------------------------------------------------------------|
|-----------------------------------------------------------------------------|


--VERSE
|------------------------------------------------------------------------------------------|
|------------------------------------------------------------------------------------------|
|------------------------------------------------------------------------------------------|
|------------------------------------------------------------------------------------------|
|------------------------------------------------------------------------------------------|
|-0h8-8-8-0h8-8-8-0h8-8-0h7-7-7-0h7-7-7-0h10-10-0h8-8-8-0h8-8-8-0h8-8-0h7-7-7-0h10-10--/\--|

 Lead - Play with whammy set to 2 octaves higher
|-12~~~~~~--11~~~~~~\--12~~~~-12b14r12-11~~~~~~\--|
|-------------------------------------------------|
|-------------------------------------------------|
|-------------------------------------------------|
|-------------------------------------------------|
|-------------------------------------------------|


--PRECHORUS
|------------------------------------------------------------------------------------------|
|------------------------------------------------------------------------------------------|
|------------------------------------------------------------------------------------------|
|------------------------------------------------------------------------------------------|
|------------------------------------------------------------------------------------------|
|-0h8-8-8-0h8-8-8-0h8-8-0h7-7-7-0h7-7-7-0h10-10-0h8-8-8-0h8-8-8-0h8-8-0h7-7-7-0h10-10--/\--|


--CHORUS
|---------------------------------------------------------------------------------|
|---------------------------------------------------------------------------------|
|------4---------------------------------------4----------------------------------|
|-5----4----------------------------------5----4----------------------------------|
|-5----2----------------------------------5----2----------------------------------|
|-3---------0h12-12-12-0h12-12-12-0h12-12-3---------0h12-12-12-0h12-12-12-0h12-12-|

 Lead fill
|-12b14r12-11~~\--|
|-----------------|
|-----------------|
|-----------------|
|-----------------|
|-----------------|

 Guitar 1
|---------------|
|---------------|
|---------4-----|
|--5------4-----|
|--5------2-----|
|--3------------|
|Guitar 2
|---------------|
|---------------|
|-/12----/11----|
|---------------|
|---------------|
|---------------|


b   - bend
r   - release
gb  - gradual bend
gr  - gradual release
h   - hammer on
p   - pull off
T   - trill
W   - whammy bar dive
\   - slide down
/   - slide up
x   - mute
X\  - pick slide
~~~ - vibrato
*7  - artificial harmonic
*7* - natural harmonic
... - palm mute
(0) - optional note
XXX - tremolo pick
alt - variation of riff

************************************************************
------------------------------------------------------------
Track 3: Bleeding The Orchid
------------------------------------------------------------


--title: bleeding the orchid
--release: zeitgeist
--last updated: 08.19.07

--transcription by: bgoold@gmail.com
--website: http://www.0bscured.com

--tuning: Db Gb B E Ab Db

--INTRO
|-0----0----0----0----|
|-0----0----3----0----|
|-8----4----2----0----|
|-9----5----4----2----|
|-9----5----4----2----|
|-7----3---(2)---0----|


--VERSE
|--------------------------------0-------------------------------------------|
|-----0--------0--------3--------0------------------3--------2----3----------|
|-----8--------4--------2--------0------------------4--------2----4----------|
|-----9--------5------4----------2----------------4--------2------5--4b5r4~~-|
|---9--------5------4----------2----------------2--------0--------5----------|
|-7--------3-------(2)-------0-----------------------------------(3)---------|


--PRECHORUS
|-0----0----0----3----|
|-3----0----2----3----|
|-2----0----2----0----|
|-0----2----2----0----|
|------2----0----2----|
|------0---------3----|


--CHORUS
|-0----0----0----0----|
|-0----0----3----0----|
|-8----4----2----0----|
|-9----5----4----2----|
|-9----5----4----2----|
|-7----3---(2)---0----|


--SOLO
|-0----0----0----0----|
|-0----0----3----0----|
|-8----4----2----0----|
|-9----5----4----2----|
|-9----5----4----2----|
|-7----3---(2)---0----|

 Lead
|--------------------------------------------------------------------------|
|--------------------------------------------------------------------------|
|--------------------------------------------------------------------------|
|--------------------------------------------------------------------------|
|-/7h9~~--/9h10~~--/10h12~~--10h12/14~~----/7h9~~--/9h10~~--/10h12~~--10h1-|
|--------------------------------------------------------------------------|

 -------------------------|
 -------------------------|
 -------------------------|
 -------------------------|
 /14~~b15r14~~b15r14~~~~--|
 -------------------------|


--VERSE
|--------------------------------0------0-----------------0--------------|
|-----0--------0--------3-----------------0--------0--------0------------|
|---8--------4--------2--------5-----------------7-----------------------|
|-9--------5--------4--------7-----------------9--------7----------------|
|-------------------------------------7----------------------------------|
|------------------------------------------------------------------------|


--PRECHORUS
|-0----0----0----3----|
|-3----0----2----3----|
|-2----0----2----0----|
|-0----2----2----0----|
|------2----0----2----|
|------0---------3----|


--CHORUS
|-0----0----0----0----|
|-0----0----3----0----|
|-8----4----2----0----|
|-9----5----4----2----|
|-9----5----4----2----|
|-7----3---(2)---0----|

 Lead
|------------------------------------------|
|------------------------------------------|
|------------------------------------------|
|------------------------------------------|
|-/7h9~~--/9h10~~--/10h12~~--10h12/14~~----|
|------------------------------------------|


--INTERLUDE
|-0----0----0-----0-----0----------------|
|-0----0----0-----0-----0----------------|
|-2----0----11----9-----2----------------|
|-4----2----12----10----4----------------|
|-4----2----12----10----4----------------|
|(2)---0----10----8----(2)---------------|


--CHORUS
|-0----0----0----0----|
|-0----0----0----0----|
|-8----0----4----0----|
|-9----2----5----2----|
|-9----2----5----2----|
|-7----0----3----0----|


--SOLO
|-0----0----0----0-----|
|-0----0----0----0-----|
|-4----0----8----11----|
|-5----2----9----12----|
|-5----2----9----12----|
|-3----0----7----10----|

 Lead
|------------17b19~~~~-17b19-17b19-17b19-17b19~~~~~~~~--------------------------------|
|-17b19~~~~----------------------------------------------------------------17gb19~~---|
|-------------------------------------------------------16p14~~~~--14h16~~------------|
|-------------------------------------------------------------------------------------|
|-------------------------------------------------------------------------------------|
|-----------------------------------------------------------------------------------\-|

 --------------------------------------------------------------------------------------|
 -----------------------------------------------------------------------15b17gr15~~~~--|
-14h16~~p14h16~~p14h16~~p14h16~~p14h16~~p14h16~~p14h16~~p14h16~~p14h16-----------------|
 --------------------------------------------------------------------------------------|
 --------------------------------------------------------------------------------------|
 --------------------------------------------------------------------------------------|
 -----------14p12p10-------------------------------------------------------------------|
 -17b19~~~~----------14p12p10----------------------------------------------------------|
 -----------------------------14p12----------------------------------------------------|
 -----------------------------------14/16~~--------------------------------------------|
 --------------------------------------------14b17r14~~-12h14p12\8~~~~gb9~~~~----------|
---------------------------------------------------------------------------------------|

b   - bend
r   - release
gb  - gradual bend
gr  - gradual release
h   - hammer on
p   - pull off
T   - trill
W   - whammy bar dive
\   - slide down
/   - slide up
x   - mute
X\  - pick slide
~~~ - vibrato
*7  - artificial harmonic
*7* - natural harmonic
... - palm mute
(0) - optional note
XXX - tremolo pick
alt - variation of riff


************************************************************
------------------------------------------------------------
Track 4: That's The Way (My Love Is)
------------------------------------------------------------

Smashing Pumpkins
That’s The Way (My Love Is)
Zeitgeist

Standard Tuning (not Eb)

I tabbed this to be played on acoustic, so the chords are the exact electric ones
played on the CD.

Capo 2

Intro: G    D/F#

G             D/F#
they say that life ain't easy
G             D/F#        Bm
they'll say your life's a crime
Em         D/F#
destroy up all good reason
     G
how i'm alive

G             D/F#
they'll say that nothing matters
G             D/F#        Bm
not even your will to survive
Em         D/F#
of course i love you baby
       G		D/F#    Bm
'cause i'm alive
   G
yes, i'm alive

           Asus      Em
whenever i call you out
           Asus      Em
whenever i draw you round
           Asus      G        D/F#    Bm
whenever is here and now
          G  D/F#   Bm
that's the way my love is
          G  D/F#   Bm
that's the way i care
          G     Asus  Bm   D/F#
you should call on me baby
    G       D/F#     Bm
i'm always there for you
          G        D/F#     Bm
yeah, i'm always there for you

D/F#
they'll say you'll lose your nerve soon
Em
to claim identity
Bm                 D/F#
disgrace our sacred promise
     G    D/F#    Bm
with no belief
     G    D/F#    Bm
oh, how i believe in you

Em7     D/F#            Asus    Bm            Em    D/F#
Ahhhh, ahhhhh  that's the way my love is, for you
          Asus     Bm              G    D/F#     Bm
that's the way my love is, for you!


Solo (over chorus chords)

|----------------------------------------|
|-5/12~-----------5/12-12-12--14---------|
|-------13-14-13\-----------------13~~~/-|
|----------------------------------------|
|----------------------------------------|
|----------------------------------------|


|-----------------------------------------------------------------|
|12x6-14--------------------------------------------------14\12~~~|
|--------13--11--9---11\13-—11--14--13-9--11\13—11----------------|
|---------------------------------------------------11~~~---------|
|-----------------------------------------------------------------|
|-----------------------------------------------------------------|


D/F#	    Em      Bm
i feel a coming age now
D/F#      Em      Bm
i feel a dawn in me
G        D/F#       Bm    Asus
a certain sun keeps rising
G    D/F#     Bm
on my belief in you


          G  D/F#   Bm
that's the way my love is
          G  D/F#   Bm
that's the way i care
          G     Asus  Bm   D/F#
you should call on me baby
    G       D/F#     Bm
i'm always there for you

          G  D/F#   Bm
that's the way my love is
          G  D/F#   Bm
that's the way i care
          G     Asus  Bm   D/F#
you should call on me baby
    G       D/F#     Bm
i'm always there for you
          G        D/F#     Bm
yeah, i'm always there for you


************************************************************
------------------------------------------------------------
Track 5: Tarantula
------------------------------------------------------------

Tabbed by: Chad Corgan (www.myspace.com/soapyrecords :D)
Email: sld.potato@gmail.com

Tuning: 1/2 step down (Bet you didn't see that coming!)

      INTRO (0:00)

  Eb|--------|
  Bb|--------|
  Gb|--------|
  Db|--2~~~--| Easy!
  Ab|--2~~~--|
  Eb|--0~~~--|

      After that, one guitar plays the low Eb string (open) over and over
   for sixteen measures. A second guitar plays natural harmonics starting
  at the twelth fret and slides all the way down, then back up again
   for all sixteen measures.

      VERSE (0:16)

Eb|--------------------------------------------------------------------------|
Bb|--------------------------------------------------------------------------|
Gb|--------------------------------------------------------------------------|
Db|--------------------------------------------------------------------------|
Ab|--2--2--2--2--2--2--2--2--2--2--2--2--5--5--5--5--5--5//10-10-10-10-10-10-|
Eb|--0--0--0--0--0--0--0--0--0--0--0--0--3--3--3--3--3--3//8--8--8--8--8--8--|

      A lot of tabs I've seen show the Cb5 chord erroniously played on the Ab
   string. If you listen to the recording carefully, you can hear the slide.
   This makes the song oddly similar to Doomsday Clock. (Shrug). This whole
   song is composed almost entirely of triplets, thus why most of the chords are
   played in multiples of three.

Eb|--------------------------------------------------------------------------|
Bb|--------------------------------------------------------------------------|
Gb|--------------------------------------------------------------------------|
Db|--------------------------------------------------------------------------|
Ab|--2--2--2--2--2--2--2--2--2--2--2--2--5--5--5--5--5--5//10-10-10-10-10-10-|
Eb|--0--0--0--0--0--0--0--0--0--0--0--0--3--3--3--3--3--3//8--8--8--8--8--8--|

      PRECHORUS (0:40)

  Eb|--------------------------------------------------------|
  Bb|--------------------------------------------------------|
  Gb|--------------------------------------------------------|
  Db|--4--4--4--4--4--4//7--7--7--7--7--7\\5--5--5--5--5--5--|
  Ab|--0--2--2--0--2--2//0--5--5--0--5--5\\3--3--3--0--3--3--|
  Eb|--------------------------------------------------------|

  Eb|--------------------------------------|
  Bb|--------------------------------------|  It looks really weird, but I'm
  Gb|--------------------------------------| pretty sure that's what's going
  Db|--------------------4--4--4//7--7--7--| on here. Just listen to the
  Ab|--7--7--7--7--7--7--2--2--2//5--5--5--| song closely and you'll hear it.
  Eb|--0--5--5--0--5--5--------------------|

      CHORUS (0:48)

  Eb|----------------------------------------------------------------------------|
Bb|------------------------------------------------------------------------------|
Gb|------------------------------------------------------------------------------|
Db|------------------------------------------------------------------------------|
Ab|--5--5--5--5--5--5--5--5--5--5--5--5--4--4--4--4--4--4--4--4--4--4--4--4------|
Eb|--3--3--3--3--3--3--3--3--3--3--3--3--2--2--2--2--2--2--2--2--2--2--2--2------|

  Eb|----------------------------------------------------------------------------|
Bb|------------------------------------------------------------------------------|
Gb|------------------------------------------------------------------------------|
Db|--9--9--9--9--9--9--9--9--9--9--9--9--9--9--9--9--9--9--9--9--9--9--9--9------|
Ab|--7--7--7--7--7--7--7--7--7--7--7--7--7--7--7--7--7--7--7--7--7--7--7--7------|
Eb|--0--0--0--0--0--0--0--0--0--0--0--0--0--0--0--0--0--0--0--0--0--0--0--0------|

  Eb|----------------------------------------------------------------------------|
Bb|------------------------------------------------------------------------------|
Gb|------------------------------------------------------------------------------|
Db|------------------------------------------------------------------------------|
Ab|-10-10-10-10-10-10-10-10-10-10-10-10--9--9--9--9--9--9--9--9--9--9--9--9------|
Eb|--8--8--8--8--8--8--8--8--8--8--8--8--7--7--7--7--7--7--7--7--7--7--7--7------|

  Eb|----------------------------------------------------------------------------|
Bb|------------------------------------------------------------------------------|
Gb|------------------------------------------------------------------------------|
Db|------------------------------------------------------------------------------|
Ab|--7--7--7--7--7--7--7--7--7--7--7--7--7--7--7--7--7--7--7--7--7--7--7--7------|
Eb|--5--5--5--5--5--5--5--5--5--5--5--5--5--5--5--5--5--5--5--5--5--5--5--5------|

  Eb|----------------------------------------------------------------------------|
Bb|------------------------------------------------------------------------------|
Gb|------------------------------------------------------------------------------|
Db|------------------------------------------------------------------------------|
Ab|--5--5--5--5--5--5--5--5--5--5--5--5-12-12-12-12-12-12-12-12-12-12-12-12------|
Eb|--3--3--3--3--3--3--3--3--3--3--3--3-10-10-10-10-10-10-10-10-10-10-10-10------|

  Eb|--------------------------------------|
  Bb|--------------------------------------|
  Gb|--------------------------------------|
  Db|--------------------------------------|
  Ab|--7--7--7--7--7--7--7--7--7--7--7--7--|
  Eb|--5--5--5--5--5--5--5--5--5--5--5--5--|

         It's amazing how off some of the tabs were for the chorus. There's
   also a second guitar playing clean in the backgroud, but it's too quiet
   to make out and be worth tabbing.

      POST-CHORUS INTERLUDE BRIDGE THING (1:04)

      Riff A
  Eb|--------------------------------------------------|
  Bb|--------------------------------------------------|
  Gb|--------------------------------------------------|
  Db|--------------------------------------------------|
  Ab|--2--2--2--2--2--2--2--2--5--5--5--5//10-10-10-10-|
  Eb|--0--0--0--0--0--0--0--0--3--3--3--3//8--8--8--8--|
  PM   .  .  .  .  .  .  .  .  .  .  .  .  .  .  .  .

      Riff B
  Eb|-------------------------------------------------------------|
  Bb|-------------------------------------------------------------|
  Gb|-------------------------------------------------------------|
  Db|-------------------------------------------------------------|
  Ab|--2--2--2--2--2--2--2--2--5----5--5--5--5//10---10-10-10-10--|
  Eb|--0--0--0--0--0--0--0--0--3----3--3--3--3//8----8--8--8--8---|
  PM   .  .  .  .  .  .  .  .

      You play this part in this order:

         Riff A
         Riff B
         Riff A
         Riff B
         Riff A
         Riff A

      Play the palm muted parts with only downstrokes.

      There's a specific rhythm (That I poorly tabbed) for this part.
   Where the rest of the song is mostly "Play-really-fast-and-pretend-
   like-you're-paying-triplets" This is a lot more distinct. Listen
   to the recording to figure out how to play it exactly. Also, the
   last time you play Riff A there's a slight difference at the very
   end. Once again, listen for it.

       BUILDUP TO THE FIRST SOLO (1:22)

  Eb|-----------------------------------|
  Bb|-----------------------------------|
  Gb|-----------------------------------|
  Db|--4--4//7--7--7//8--8--8//9--9--9--|
  Ab|--2--2//5--5--5//6--6--6//7--7--7--|
  Eb|-----------------------------------|

  Eb|--------------------------------------|
  Bb|--------------------------------------|
  Gb|--------------------------------------|  I'm not sure what Billy's
  Db|--------------------------------------| playing here, but this
  Ab|--5--5--5--5--5--5--5--5--5--5--5--5--| sounds good enough.
  Eb|--3--3--3--3--3--3--3--3--3--3--3--3--|
  PM   .  .  .  .  .  .  .  .  .  .  .  .

  Eb|-----------------------------------|
  Bb|-----------------------------------|
  Gb|-----------------------------------|
  Db|-----------------------------------|
  Ab|--4--4//7--7--7//8--8--8//9--9--9--|
  Eb|--2--2//5--5--5//6--6--6//7--7--7--|

      Then one guitar plays the low Eb string (again), and the second guitar
   plays natural harmonics down from the twelfth fret (again) for two measures.

      FIRST GUITAR SOLO (1:33)

      Oh, boy. Here we go. First guitar plays the verse riff four times,
   and the second guitar does something a little harder.

      To make life easy, I broke up all the lead parts in the tab
   into phrases. So, yeah, each box is a phrase, not a measure.

  Eb|--10/12p0--10/12p0--10/12p0--10/12p0--10/12p0---------|
  Bb|-----------------------------------------------11~~~--|
  Gb|------------------------------------------------------|
  Db|------------------------------------------------------|
  Ab|------------------------------------------------------|
  Eb|------------------------------------------------------|

  Eb|--10/12p0--10/12p0--10/12p0--10/12p0--10/12p0--|
  Bb|-----------------------------------------------|
  Gb|-----------------------------------------------|
  Db|-----------------------------------------------|
  Ab|-----------------------------------------------|
  Eb|-----------------------------------------------|

  Eb|--19--15------15--------------------|
  Bb|----------17------17--15--14--13~~--|
  Gb|------------------------------------|
  Db|------------------------------------|
  Ab|------------------------------------|
  Eb|------------------------------------|

  Eb|---------------------------------8~~--|
  Bb|------10h12------10h12-----8h10--8~~--|   Technically it's
  Gb|--12~--------11~--------9~------------| two guitars doing the
  Db|--------------------------------------| solo, but I'm going to
  Ab|--------------------------------------| tab it for only one.
  Eb|--------------------------------------|


  Eb|--------------------------------------------|
  Bb|--10--8--7--8--7-----7----------------------|
  Gb|------------------9-----9--7--9--7----------| This is a bit off, but
  Db|------------------------------------9-------| laziness says it's OK.
  Ab|---------------------------------------7~~--|
  Eb|--------------------------------------------|

      There, that wasn't too bad, now was it?

      VERSE (1:46) & INTERLUDE

      The rhythm guitar for the verse is the same as the begining. For
   the interlude, play Riff A four times. There's also a lead bit:

      Soloage: (1:57)
  Eb|--12--10----------------------------------|
  Bb|----------12--10b11r10--8\5~~----13/15~~--|
  Gb|------------------------------------------|
  Db|------------------------------------------|
  Ab|------------------------------------------|
  Eb|------------------------------------------|

      Listen for where all this stuff goes.

      PRECHORUS (2:07)

      Same as the prechorus in the begining... with a guitar solo.
   This is where the lead starts to get really sweet. :D

  Eb|--14*--------------------|
  Bb|--17b19--15h17p15--------|  *I'm not sure if that 14 is
  Gb|-------------------14~~--| played in the song or not,
  Db|-------------------------| but hey, it sounds cool.
  Ab|-------------------------|
  Eb|-------------------------|

  Eb|----------------------------|
  Bb|----------------------------|
  Gb|--12--14--12--11--12--11~~--|
  Db|----------------------------|
  Ab|----------------------------|
  Eb|----------------------------|

  Eb|------------------|
  Bb|------------------|
  Gb|--11--12--11\9~~--|
  Db|------------------|
  Ab|------------------|
  Eb|------------------|

      CHORUS (2:16)

      Same as the first one. And there's no lead to worry about!

      SECOND GUITAR SOLO (2:32)

      Because these solos are completely outside of my playing abillity,
      (Not to mention, I don't have enough frets on my guitar) this is
      based off of the Guitar Pro file by Scott McClelland. I used it
      without permission. Rock on!!!

      (Well, my version *is* completely different from his,
       so I don't feel guilty for using it. But just know I couldn't
       have done it without his version.)

  Eb|--10b12--12--10-----------------------------------------|
  Bb|-----------------12--10--10b12r10------10b12------------|
  Gb|-----------------------------------12---------9--10b12--|
  Db|--------------------------------------------------------|
  Ab|--------------------------------------------------------|
  Eb|--------------------------------------------------------|

  Eb|-----------------------------------|
  Bb|-----------------------------------|
  Gb|--9--7-----------12~-11-12--9~~//--|
  Db|-------9--7\5~~--------------------|
  Ab|-----------------------------------|
  Eb|-----------------------------------|

  Eb|--10pb12r10----10----------------|
  Bb|------------12----10--12---------|
  Gb|-------------------------12~~//--|  Watch out for those pre-bends!
  Db|---------------------------------|
  Ab|---------------------------------|
  Eb|---------------------------------|

  Eb|--17pb19--17p15---------10----10----10----12b14r12-10-12-10------|
  Bb|----------------17b19~~----12----12----12-------------------12~--|
  Gb|-----------------------------------------------------------------|
  Db|-----------------------------------------------------------------|
  Ab|-----------------------------------------------------------------|
  Eb|-----------------------------------------------------------------|

  Eb|--17-15-17-19-24----24b26(?!)r24-22-24--|
  Bb|-----------------24---------------------|
  Gb|----------------------------------------|
  Db|----------------------------------------|
  Ab|----------------------------------------|
  Eb|----------------------------------------|

  Eb|--------10-12-10-17b*--|
  Bb|--12-10----------------|
  Gb|-----------------------| * Bend that 17 to
  Db|-----------------------| the heavens, baby!
  Ab|-----------------------|
  Eb|-----------------------|

      QUIET INTERLUDE (2:50)

      Featuring some of Billy's favorite chords!
      Just strum along, get a feel for the rhythm
      from the recording. Easy.

         Dsus2/F#
       G         E        C    Em   Am
  Eb|--3----0----0--------0----0----0------|
  Bb|--3----3----0--------1----0----1------|
  Gb|--0----2----0--------0----0----2------|
  Db|--0----0----2--------2----2----2------| x2
  Ab|--2----0----2--------3----2----0------|
  Eb|--3----2----0-------------0-----------|

      And, the lead, of course. Keep going with that 17 bend,
      and then play:

  Eb|--15--13*b--|
  Bb|------------| * That 13 is an
  Gb|------------|   artificial harmonic.
  Db|------------|
  Ab|------------| (Yet you bend it up higher anyways.)
  Eb|------------|

      Then comes some weird-ass noise that I have
      no clue how to tab, so I'll just put x's!

  Eb|--x-------------------------------------------------|
  Bb|--x-------------------------------------------------|
  Gb|--x--12b14r12--11-9-11-9\7~-9b11-9b11r9--7--9-------|
  Db|-----------------------------------------------9~~--|
  Ab|----------------------------------------------------|
  Eb|----------------------------------------------------|

      ANTI-QUIET INTERLUDE (3:12)

  Eb|--------|    |--------|
  Bb|--------|    |--------|
  Gb|--------|    |--2--4--|
  Db|--7--9--| OR |--2--4--| (But not both!)
  Ab|--7--9--|    |--0--2--|
  Eb|--5--7--|    |--------|

      THIRD AND FINAL SOLO!!! (3:13)

      Play that verse riff seven times. Then play:

  Eb|-----------------------------------|
  Bb|-----------------------------------|
  Gb|-----------------------------------|
  Db|--4--4//7--7--7//8--8--8//9--9--9--|
  Ab|--2--2//5--5--5//6--6--6//7--7--7--|
  Eb|-----------------------------------|

  Eb|--------------------------------------|
  Bb|--------------------------------------|
  Gb|--------------------------------------|
  Db|--------------------------------------|
  Ab|--5--5--5--5--5--5--5--5--5--5--5--5--|
  Eb|--3--3--3--3--3--3--3--3--3--3--3--3--|
  PM   .  .  .  .  .  .  .  .  .  .  .  .

  Eb|-----------------------------------|
  Bb|-----------------------------------|
  Gb|-----------------------------------|
  Db|-----------------------------------|
  Ab|--4--4//7--7--7//8--8--8//9--9--9--|
  Eb|--2--2//5--5--5//6--6--6//7--7--7--|

      Which should seem familliar. Then play those crazy harmonics,
      just like how you played them in the intro, and we're almost done!

      By the way, I've must've listened to this song about 11,000
      fucking times by now, figuring this all out. You're welcome.

      Now for the last solo piece: (Sniff, sniff)

  Eb|------------|
  Bb|--15b17~~~--|
  Gb|------------|
  Db|------------|
  Ab|------------|
  Eb|------------|

  Eb|--12-15-12----12-15-12----12-15-12----12-15-12----12--------------|
  Bb|-----------15----------15----------15----------15----12----15-12--|
  Gb|--------------------------------------------------------14--------|
  Db|------------------------------------------------------------------|
  Ab|------------------------------------------------------------------|
  Eb|------------------------------------------------------------------|

  Eb|--12-15-12-------12-15-12----------|
  Bb|-----------15b17----------12-------|
  Gb|-----------------------------12~~--|
  Db|-----------------------------------|
  Ab|-----------------------------------|
  Eb|-----------------------------------|

  Eb|------------|
  Bb|--17--15~~--|
  Gb|------------|
  Db|------------|
  Ab|------------|
  Eb|------------|

  Eb|-------------17pb19r17-15-17---------------------------|
  Bb|--17pb19r17------------------17~~-17b19r17-15-17-------|
  Gb|-------------------------------------------------16~~--|
  Db|-------------------------------------------------------|
  Ab|-------------------------------------------------------|
  Eb|-------------------------------------------------------|

  Eb|--17b19-17-15--------------------------|
  Bb|--------------17~-17b19r17-17-15-------|
  Gb|---------------------------------16~~--|
  Db|---------------------------------------|
  Ab|---------------------------------------|
  Eb|---------------------------------------|

  Eb|--17pb19r17-15-17--------------------------|
  Bb|------------------17~-17b19r17-15-17-------|
  Gb|-------------------------------------16~~--|
  Db|-------------------------------------------|
  Ab|-------------------------------------------|
  Eb|-------------------------------------------|

      This is a bit confusing:

  Eb|-----17--------------------|
  Bb|--17b19b20-----------------| Basically, you're
  Gb|---------------------------| playing a note during
  Db|------------| the 17 to 20-| bend.
  Ab|---------------------------| Also the coolest part
  Eb|---------------------------| of the song.

  Eb|-----------------------------------|
  Bb|-----------------------------------|
  Gb|--14-12-12-14-14b16r14-12-14-12~~--|
  Db|-----------------------------------|
  Ab|-----------------------------------|
  Eb|-----------------------------------|

  Eb|------------------------------------------------|
  Bb|------------------------------------------------|
  Gb|--------12-14b16-14b16-12-----------------------|
  Db|--12/14-------------------14-14-12--------------|
  Ab|-----------------------------------14-12--------|
  Eb|-----------------------------------------15-12--|

  Eb|--------------------------------------------|
  Bb|--17b-17b-17b-17b 17b-17b-17b-17b-17b-17~~~-|
  Gb|--------------------------------------------|
  Db|--------------------------------------------|
  Ab|--------------------------------------------|
  Eb|--------------------------------------------|

  Eb|-----------------------------------x\\--|
  Bb|--0----------------------17-15b16--x\\--|
  Gb|-------12-14-14b16r14-12-----------x\\--| And you're done! Yaaay!
  Db|----14----------------------------------|
  Ab|----------------------------------------|
  Eb|----------------------------------------|


************************************************************
------------------------------------------------------------
Track 6: Starz
------------------------------------------------------------

STARZ
                      As recorded by The Smashing Pumpkins
                         (From the 2007 Album ZEITGEIST)

Words and Music by Billy Corgan
Transcribed by Leah Bush

Gtr I (Eb Ab Db Gb Bb Eb) - 'Untitled'
Gtr II (Eb Ab Db Gb Bb Eb) - 'Untitled'
Gtr III (Eb Ab Db Gb Bb Eb) - 'Untitled'
Gtr IV (Eb Ab Db Gb Bb Eb) - 'Untitled'


   Intro
    Q=130
    E5              C5                D5
   4/4
    Gtr I
    PM---------------------------------------|
||------------------------|------------------|
||o-----------------------|------------------|
||------------------------|-----------7-7----|
||--2-2-4-2-5p=4--0-5-(5)-|-5-5-5-5-5-7-7----|
||o-2-2-2-2-2--2--0-3-(3)-|-3-3-3-3-3S5-5----|
||--0-0-0-0-0-(0)---------|------------------|


  E5              C5              D5
  PM-----------------------------------------|
|---------------------|----------------------|
|---------------------|------------------o---|
|---------------------|-----------7-7--------|
|-2-2-4-2-5p=4--0-5-5-|-5-5-5-5-5-7-7--------|
|-2-2-2-2-2--2--0-3-3-|-3-3-3-3-3S5-5----o---|
|-0-0-0-0-0-(0)-------|----------------------|

 Verses

  E5
                           >
|----------|------------|------------|--------|
|----------|------------|------------|--------|
|----------|------------|------------|--------|
|-2--------|-(2)--------|-(2)--------|-(2)----|
|-2--------|-(2)--------|-(2)--------|-(2)----|
|-0--------|-(0)--------|-(0)--------|-(0)----|


    E5              C5                D5
    Gtr II
||------------------------|-------------0--|
||o-----------------------|---------0------|
||------------------------|-----------0----|
||------------------------|----------------|
||o-----------------------|----------------|
||------------------------|----------------|
|
|   Gtr I
|   PM---------------------------------------|
||------------------------|------------------|
||o-----------------------|------------------|
||------------------------|------------------|
||--2-2-4-2-5p=4--0-5-(5)-|-5-5-5-5-5-7-7----|
||o-2-2-2-2-2--2--0-3-(3)-|-3-3-3-3-3S5-5----|
||--0-0-0-0-0-(0)---------|------------------|


  E5                C5              D5
|-(0)-------------------|-------------0----||
|-----------------------|---------0-------o||
|-----------------------|-----------0------||
|-----------------------|------------------||
|-----------------------|-----------------o||
|-----------------------|------------------||
|
|  PM-----------------------------------------|
|-----------------------|---------------------|
|-----------------------|-----------------o---|
|-----------------------|---------------------|
|--2--2-4-2-5p=4--0-5-5-|-5-5-5-5-5-7-7-------|
|--2--2-2-2-2--2--0-3-3-|-3-3-3-3-3S5-5---o---|
|--0--0-0-0-0-(0)-------|---------------------|


                                                               C5 G5
  Gtr I                                                        Gtrs I, II
|----------------|------------------|---------------|---------------|
|----------------|---------------0--|---------------|---------------|
|----------------|--2-------(2)-(2)-|---------------|----------5----|
|-2------(2)--2--|-(2)------(2)-(2)-|-2--0-2--0--/4-|-(4)-0----5--5-|
|-2------(2)-(2)-|-(2)------(2)-(2)-|---------------|----------3--5-|
|-0------(0)-(0)-|-(0)------(0)-(0)-|---------------|-------------3-|

Pre-Choruses

       G5  D5 A5                 E5               G5
|---------------|----------------0-|-(0)--0--0-0----|
|---------------|----------------0-|-(0)--0--0-0----|
|----------7----|----------------x-|-(x)--x---------|
|-(5)--5---7--7-|-(7)--7---------2-|-(2)--2-------5-|
|-(5)--5---5--7-|-(7)--7---------2-|-(2)--2--2-2--5-|
|-(3)--3------5-|-(5)--5-0-5h6h7-0-|-(0)--0--0-0--3-|


        D5 C5 G5             B5 A5                 E5               G5
|---------------|-----------------|----------------0-|-(0)--0--0-0----|
|---------------|-----------------|----------------0-|-(0)--0--0-0----|
|-------7--5----|-----------------|----------------x-|-(x)--x---------|
|-(5)---7--5--5-|-(5)----(5)-9--7-|-(7)--7---------2-|-(2)--2-------5-|
|-(5)---5--3--5-|-(5)----(5)-9--7-|-(7)--7---------2-|-(2)--2--2-2--5-|
|-(3)---------3-|-(3)----(3)-7--5-|-(5)--5-0-5h6h7-0-|-(0)--0--0-0--3-|


        D5 C5 G5             B5 A5                 E5
|---------------|-----------------|----------------0-|
|---------------|-----------------|----------------0-|
|-------7--5----|-----------------|----------------x-|
|-(5)---7--5--5-|-(5)----(5)-9--7-|-(7)--7---------2-|
|-(5)---5--3--5-|-(5)----(5)-9--7-|-(7)--7---------2-|
|-(3)---------3-|-(3)----(3)-7--5-|-(5)--5-0-5h6h7-0-|


                                    G5 E5
|-(0)--------|---------------------------|
|-(0)--------|---------------------------|
|-(x)--------|---------------------------|
|-(2)--------|----------------------5--2-|
|-(2)--------|----------------------5--2-|
|-(0)--------|-<0>-<3>-<5>-<7>-<10>-3--0-|


 Choruses


               A5 G5                 B5 E5
  Gtr IV
|-12--14-15---------|-15--14-15-12------(12)-|
|-------------------|------------------------|
|-------------------|------------------------|
|-------------------|------------------------|
|-------------------|------------------------|
|-------------------|------------------------|
|
| Gtr III
|-------------------|------------------------|
|--5---3--5---------|--5---3--5--------------|
|-------------------|------------4-------(4)-|
|-------------------|------------------------|
|-------------------|------------------------|
|-------------------|------------------------|
|
| Gtrs I, II
|-------------------|------------------------|
|-------------------|------------------------|
|-------------------|------------------------|
|-(2)-----2--2-7--5-|-(5)-----5----5-9----2--|
|-(2)-----2--2-7--5-|-(5)-----5----5-9----2--|
|-(0)-----0--0-5--3-|-(3)-----3----3-7----0--|


                    AG5                       E55
|-15--14-15-----------|-15--14-15-12------(12)---|
|---------------------|--------------------------|
|---------------------|--------------------------|
|---------------------|--------------------------|
|---------------------|--------------------------|
|---------------------|--------------------------|
|
|---------------------|--------------------------|
|--5---3--5-----------|--5---3--5----------------|
|---------------------|------------4-------(4)---|
|---------------------|--------------------------|
|---------------------|--------------------------|
|---------------------|--------------------------|
|
|---------------------|--------------------------|
|---------------------|--------------------------|
|---------------------|--------------------------|
|-(2)-----2--2-7--5---|-(5)-----5----5-9----2----|
|-(2)-----2--2-7--5---|-(5)-----5----5-9----2----|
|-(0)-----0--0-5--3---|-(3)-----3----3-7----0----|


               A5 G5                  B5E5
|-12--14-15---------|-15--14-15-12------(12)-|
|-------------------|------------------------|
|-------------------|------------------------|
|-------------------|------------------------|
|-------------------|------------------------|
|-------------------|------------------------|
|
|-------------------|------------------------|
|--5---3--5---------|--5---3--5--------------|
|-------------------|------------4-------(4)-|
|-------------------|------------------------|
|-------------------|------------------------|
|-------------------|------------------------|
|
|-------------------|------------------------|
|-------------------|------------------------|
|-------------------|------------------------|
|-(2)-----2--2-7--5-|-(5)-----5----5--9---2--|
|-(2)-----2--2-7--5-|-(5)-----5----5--9---2--|
|-(0)-----0--0-5--3-|-(3)-----3----3--7---0--|


               A5 G5                    G5  E5
|-15--14-15---------|-15--14-15-12------(12)-|
|-------------------|------------------------|
|-------------------|------------------------|
|-------------------|------------------------|
|-------------------|------------------------|
|-------------------|------------------------|
|
|-------------------|------------------------|
|--5---3--5---------|--5---3--5--------------|
|-------------------|------------4-------(4)-|
|-------------------|------------------------|
|-------------------|------------------------|
|-------------------|------------------------|
|
|-------------------|------------------------|
|-------------------|------------------------|
|-------------------|------------------------|
|-(2)-----2--2-7--5-|-(5)-----5----5-9----2--|
|-(2)-----2--2-7--5-|-(5)-----5----5-9----2--|
|-(0)-----0--0-5--3-|-(3)-----3----3-7----0--|


             N.C.                 G5 E5
|-0--------|---------------------------|
|-0--------|---------------------------|
|-x--------|---------------------------|
|-2--------|----------------------5--2-|
|-2--------|----------------------5--2-|
|-0--------|-<0>-<3>-<5>-<7>-<10>-3--0-|

 Bridge
                                D5 E5  D5          D5  E5 D5
  Gtr I
                                                              3x
|----------|------------||-----------------|------------------||
|----------|------------||o----------------|-----------------o||
|----------|------------||-----------------|------------------||
|----------|------------||--9-9-7--9-9-7-9-|-(9)-9-7-0-9--7---||
|-7--------|-(7)--------||o-7-7-5--7-7-5-7-|-(7)-7-5-0-7--5--o||
|-0--------|-(0)--------||--0-0----0-------|------------------||

  E5  D5 E5  D5E5      G5  F#5G5      E
  Gtr II
                                                    >
|----------------|-----15--14-15----|-12--------|-(12)----|
|----------------|------------------|-----------|---------|
|----------------|------------------|-----------|---------|
|----------------|------------------|-----------|---------|
|----------------|------------------|-----------|---------|
|----------------|------------------|-----------|---------|
|
| Gtr I
|                                                   >
|----------------|------------------|-----------|---------|
|----------------|------------------|-----------|---------|
|----------------|------------------|-----------|---------|
|-9-9-7--9-9-7-9-|-(9)--------------|-----------|---------|
|-7-7-5--7-7-5-7-|-(7)--5---4--5----|-----------|---------|
|-0-0----0-------|------3---2--3----|--0--------|--(0)----|


    Gtr I
                             3x
||-------------|-------------||--------|
||o------------|------------o||--------|
||-------------|-------------||--------|
||-------------|-------------||--------|
||o------------|------------o||--------|
||--(0)--------|-(0)---------||-(0)----|

Outro
|-----------------|---------------|
|-----------------|---------------|
|-----------------|----------5----|
|-----------------|----------5--5-|
|-----------------|----------3--5-|
|-0-0-0-0-0-0-0-0-|-0-0-0-0-----3-|


       G5  D5 A5                 E5                 G5
|---------------|----------------0-|-(0)--0--0-0-----|
|---------------|----------------0-|-(0)--0--0-0-----|
|----------7----|----------------x-|-(x)--x----------|
|-(5)--5---7--7-|-(7)--7---------2-|-(2)--2-------5--|
|-(5)--5---5--7-|-(7)--7---------2-|-(2)--2--2-2--5--|
|-(3)--3------5-|-(5)--5-0-5h6h7-0-|-(0)--0--0-0--3--|


        D5 C5 G5              B5 A5                 E5               G5
|---------------|------------------|----------------0-|-(0)--0--0-0----|
|---------------|------------------|----------------0-|-(0)--0--0-0----|
|-------7--5----|------------------|----------------x-|-(x)--x---------|
|-(5)---7--5--5-|-(5)--5--(5)-9--7-|-(7)--7---------2-|-(2)--2-------5-|
|-(5)---5--3--5-|-(5)--5--(5)-9--7-|-(7)--7---------2-|-(2)--2--2-2--5-|
|-(3)---------3-|-(3)--3--(3)-7--5-|-(5)--5-0-5h6h7-0-|-(0)--0--0-0--3-|


        D5 C5 G5            B5 A5                 E5
|---------------|----------------|----------------0-|
|---------------|----------------|----------------0-|
|-------7--5----|----------------|----------------x-|
|-(5)---7--5--5-|-(5)--5--5-9--7-|-(7)--7---------2-|
|-(5)---5--3--5-|-(5)--5--5-9--7-|-(7)--7---------2-|
|-(3)---------3-|-(3)--3--3-7--5-|-(5)--5-0-5h6h7-0-|


|-(0)-(0)\-------|-----*|
|-(0)-(0)\-------|-----*|
|-(x)-(x)\-------|-----*|
|-(2)-(2)\-------|-----*|
|-(2)-(2)\-------|-----*|
|-(0)-(0)\-------|-----*|


************************************************************
------------------------------------------------------------
Track 7: United States
------------------------------------------------------------

Okay this song is pretty amazing
Lots of disortion

sorry if its so long
but its 10 minutes so..

okay here we go

Guitar 1 comes in after drums

Intro/Post Chorus
(with whammy bar)

Guitar 1
eb|-------------------------|        |-----|
Bb|-------------------------|        |-----|
Gb|-------------------------|        |-----|
Db|-0~----0~-12-\10-0\3b----| end on |-10~-|
Ab|-0~----0~-12-\10-0\3b----|        |-10~-|
Db|-0~-x4-0~-12-\10-0\3b-x4-|        |-10~-|

Verse/Chorus

Guitar 1
Do this a lot

eb|------------------|
Bb|------------------|
Gb|------------------|
Db|-0000000000003033-|
Ab|-0000000000003033-|
Db|-0000000000003033-|

Guitar 2
Comes in after guitar 1
(with wah)

eb|-5~--------------|
Bb|-3~-3xx3xx3xx666-|
Gb|-2~-2xx2xx2xx555-|
Db|-0~-0xx0xx0xx333-|
Ab|-----------------|
Db|-----------------|

During the Chorus when he says "what will they do?"

Guitar 1 plays

eb|-------|
Bb|-------|
Gb|-------|
Db|-666-5-|
Ab|-666-5-|
Db|-666-5-|


Solo Part 1

Guitar 1 plays verse

Guitar 2:

eb|-----------------888888----------------------------------------888|
Bb|-10-(x12)-999999-666666-10-(x12)-999999-666666-10-(x12)-999999-666|
Gb|-7--------666666-555555-7--------666666-444444-7--------666666-555|
Db|-7--------666666--------7--------666666-333333-7--------666666----|
Ab|------------------------------------------------------------------|
Db|------------------------------------------------------------------|

eb|----------|
Bb|-10-9-7-6-|
Gb|--7-6-6-5-|
Db|--7-6-4-3-|
Ab|----------|
Db|----------|

eb|-----------------888888----------------------------------------888|
Bb|-10-(x12)-999999-666666-10-(x12)-999999-666666-10-(x12)-999999-666|
Gb|-7--------666666-555555-7--------666666-444444-7--------666666-555|
Db|-7--------666666--------7--------666666-333333-7--------666666----|
Ab|------------------------------------------------------------------|
Db|------------------------------------------------------------------|

eb|------------------------------|
Bb|-13-12-11-10-9876543-4-5-6/15-|
Gb|-12-11-10--9-8765432-3-4-5/14-|
Db|-10--9--8--7-6543210-1-2-3----|
Ab|------------------------------|
Db|------------------------------|

Solo Part 2

Guitar 1

eb|-5~--|
Bb|-3~--|
Gb|-2~--|
Db|-0~--|
Ab|-0~--|
Db|-0~--|

Guitar 2
hammer on with lots of feedback

eb|-----------12b-|x3 |--------------------------|
Bb|-15b----13b----|   |-15b---13b----------------|
Gb|---------------|   |------------13b-14b---13b-|
Db|---------------|   |--------------------------|
Ab|---------------|   |--------------------------|
Db|---------------|   |--------------------------|

Guitar 1
with delay
a bunch of didfferent harmonics
eb|-xxxxxxxxxxxx|
Bb|-xxxxxxxxxxxx|
Gb|-xxxxxxxxxxxx|
Db|-xxxxxxxxxxxx|
Ab|-xxxxxxxxxxxx|
Db|-xxxxxxxxxxxx|

Guitar 2
reverb
either bend a lot or use slider

eb|------------------------------------------------16b-17b-19b-16b--|
Bb|-----------------------------------------/18b\15-----------------|
Gb|-----------------------------------/19-18b-----------------------|
Db|-6b-7b----3b-2b-0b-----------------------------------------------|
Ab|-------------------0b--------------------------------------------|
Db|---------------------(000000)-0b-0b------------------------------|


eb|--------------------18b-20b-20/22b-|
Bb|-/15b-15-18b/20b-20b---------------|
Gb|-----------------------------------|
Db|-----------------------------------|
Ab|-----------------------------------|
Db|-----------------------------------|

Bridge

Guitar 1

eb|----------------------------|
Bb|----------------------------|
Gb|----------------------------|
Db|-0-10-0-10-0-10-12-12-15-15-|
Ab|-0-10-0-10-0-10-12-12-15-15-|
Db|-0-10-0-10-0-10-12-12-15-15-|

eb|--------------------|
Bb|--------------------|
Gb|-14141414-1717-1212-|
Db|-14141414-1717-1212-|
Ab|-12121212-1515-1010-|
Db|--------------------|

eb|--------------------|
Bb|--------------------|
Gb|-1414-1313-12121111-|
Db|-1212-1111-1010-9-9-|
Ab|--------------------|
Db|--------------------|

Outro

Guitar 1

eb|-----------|
Bb|-----------|
Gb|-----------|
Db|-0-0-0-0-0-|
Ab|-0-0-0-0-0-|
Db|-0-0-0-0-0-|x16

Guitar 2
Come in after the 8th time

eb|------------------------|
Bb|-3-3-3-3-3----2-2-2-2-2-|
Gb|-2-2-2-2-2----2-2-2-2-2-|
Db|------------------------|
Ab|------------------------|
Db|------------------------|x4

Then guitar 1 is the same while guitar 2 does this:

eb|----------2255---------1144-|
Bb|-3-3-3-3-3----2-2-2-2-2-----|
Gb|-2-2-2-2-2----2-2-2-2-2-----|
Db|----------------------------|
Ab|----------------------------|
Db|----------------------------|

Guitar 1

eb|----------------------------------|
Bb|----------------------------------|
Gb|----------------------------------|
Db|----------------------------------|
Ab|----------------------------------|
Db|-0-0-----0-0-----0-0----030033-55-|

Guitar 2
(listen for timing)

eb|-------|
Bb|-3-5-8-|
Gb|-2-4-7-|
Db|-------|
Ab|-------|
Db|-------|

Guitar 1

eb|--------------------------------|
Bb|--------------------------------|
Gb|--------------------------------|
Db|--------------------------------|
Ab|--------------------------------|
Db|-030033-55---8558558-9101091010-|

Guitar 1

eb|----------------------------------|
Bb|----------------------------------|
Gb|----------------------------------|
Db|----------------------------------|
Ab|----------------------------------|
Db|-0-0-----0-0-----0-0----030033-55-|

Guitar 2
(listen for timing)

eb|-------|
Bb|-3-5-8-|
Gb|-2-4-7-|
Db|-------|
Ab|-------|
Db|-------|

Guitar 1

eb|----------------------------------|
Bb|----------------------------------|
Gb|----------------------------------|
Db|----------------------------------|
Ab|----------------------------------|
Db|-030033-55---8558558-9101091010/0-|

im pretty sure most of this is right but its a lottt of
crap to remember so yeahhh

If u likee it email me-
redburstibanez@yahoo.com


************************************************************
------------------------------------------------------------
Track 8: Neverlost
------------------------------------------------------------


--title: neverlost
--release: zeitgeist
--last updated: 07.06.07

--transcription by: bgoold@gmail.com
--website: http://www.0bscured.com

--tuning: Db Gb B E Ab Db

--INTRO/VERSE
|--------------------------------|
|---------------------------0----|
|---0------2---------------------|
|-2------4--------2------0-------|
|---------------3------2---------|
|--------------------------------|


--PRECHORUS
|-0--0--0-----0---------0---------|
|-0--0--0-----0---------0---------|
|-11-9--11----0---------9---------|
|-0--0--0-----9---------10--------|
|-x--x--x-----10--------0---------|
|-10-10-10----0-------------------|


--VERSE
|--------------------------------|
|---------------------------0----|
|---0------2---------------------|
|-2------4--------2------0-------|
|---------------3------2---------|
|--------------------------------|


--PRECHORUS
|-0--0--0-----0---------0---------|
|-0--0--0-----0---------0---------|
|-11-9--11----0---------9---------|
|-0--0--0-----9---------10--------|
|-x--x--x-----10--------0---------|
|-10-10-10----0-------------------|


--CHORUS
|--------------------------------|
|---------------------------0----|
|---0------2---------------------|
|-2------4--------2------0-------|
|---------------3------2---------|
|--------------------------------|


--VERSE
|--------------------------------|
|---------------------------0----|
|---0------2---------------------|
|-2------4--------2------0-------|
|---------------3------2---------|
|--------------------------------|


--BRIDGE
|-------------0---0-----3--------|
|-------------1---0-----3--------|
|---------0--(0)-(0)----0--------|
|-----2-----------------0--------|
|-0---------------------2--------|
|-----------------------3--------|


--SOLO
|-0--0--0-----0---------0---------|
|-0--0--0-----0---------0---------|
|-11-9--11----0---------9---------|
|-0--0--0-----9---------10--------|
|-x--x--x-----10--------0---------|
|-10-10-10----0-------------------|

 Lead
|----------------------------------------------------------------------------|
|----------------------------------------------------------------------------|
|-/14-16--12~~~~--14-14~~--11gb12gr11~~~~--11~~p9~~\7~~~~--/9~~h11~~/16p14~~-|
|----------------------------------------------------------------------------|
|----------------------------------------------------------------------------|
|----------------------------------------------------------------------------|

 ----------------------------------------------17\15----15\14~~~~----|
 -15-15~~--17-17~~-15/19~~--17p15\12-15/17-/19-------17--------------|
 --------------------------------------------------------------------|
 --------------------------------------------------------------------|
 --------------------------------------------------------------------|
 --------------------------------------------------------------------|


--PRECHORUS
|-0--0--0-----0---------0---------|
|-0--0--0-----0---------0---------|
|-11-9--11----0---------9---------|
|-0--0--0-----9---------10--------|
|-x--x--x-----10--------0---------|
|-10-10-10----0-------------------|


--CHORUS/OUTRO
|--------------------------------|
|---------------------------0----|
|---0------2---------------------|
|-2------4--------2------0-------|
|---------------3------2---------|
|--------------------------------|

b   - bend
r   - release
gb  - gradual bend
gr  - gradual release
h   - hammer on
p   - pull off
T   - trill
W   - whammy bar dive
\   - slide down
/   - slide up
x   - mute
X\  - pick slide
~~~ - vibrato
*7  - artificial harmonic
*7* - natural harmonic
... - palm mute
(0) - optional note
XXX - tremolo pick
alt - variation of riff


************************************************************
------------------------------------------------------------
Track 9: Bring The Light
------------------------------------------------------------


--transcription by: bgoold@gmail.com
--website: http://www.0bscured.com


--tuning: Db Gb B E Ab Db

--INTRO
|-----------------------------------------------------------------|
|-0-0-0-0-0-0-0-0-3-3-3-3-5-5-5-5-3-3-3-3-3-3-3-3-2-2-2-2-0-0-0(0)|
|-0-0-0-0-0-0-0-0-4-4-4-4-4-4-4-4-2-2-2-2-2-2-2-2-2-2-2-2-1-1-1-2-|
|-0-0-0-0-0-0-0-0-4-4-4-4-2-2-2-2-0-0-0-0-0-0-0-0-2-2-2-2-2-2-2-2-|
|-x-x-x-x-x-x-x-x-2-2-2-2-------------------------0-0-0-0-x-x-x-x-|
|-3-3-3-3-3-3-3-3-----------------------------------------4-4-4-4-|
  ...............................................................

 Guitar 1
|-----------------|
|-----------------|
|-4-4-4-4---------|
|-4-4-4-4-2-2-2-2-|
|-2-2-2-2-2-2-2-2-|
|---------0-0-0-0-|
|Guitar 2
|-----------------|
|-----------------|
|-7-7-7-7-9-9-9-9-|
|-----------------|
|-5-5-5-5-7-7-7-7-|
|-----------------|

 Guitar 1
|----------------------|
|----------------------|
|------4----7----------|
|-5----4----7----7--6--|
|-5----2----5----7--7--|
|-3--------------5--4--|
|Guitar 2
|----------------------|
|----------------------|
|-4----7----7----9--13-|
|----------------------|
|-2----5----5----7--11-|
|----------------------|

 Lead
|-17h19-19-17-19~~------------------------------------------------|
|-------------------17h19-19-17-19~~~~-19-19-19-17~~~~-19p17\15~~-|
|-----------------------------------------------------------------|
|-----------------------------------------------------------------|
|-----------------------------------------------------------------|
|-----------------------------------------------------------------|

 Guitar 1
|-----------------------------------------|
|-----------------------------------------|
|-----------------------------------------|
|-----------------------------------------|
|-----------------------------------------|
|-7--0--10~~~~----10--0--5~~~~---0--------|
|Guitar 2
|-----------------------------------------|
|-----------------------------------------|
|-11----11--------11--11-9------/13-------|
|-----------------------------------------|
|-9-----9---------9---9--7------/11-------|
|-----------------------------------------|

 Lead
|-----------------------------------------|
|-15~~~~~~~~------15-15b17r15-12~~~~~~~~--|
|-----------------------------------------|
|-----------------------------------------|
|-----------------------------------------|
|-----------------------------------------|


--VERSE
|---------------------------------------------------|
|-----0-----------------------3-----------2------0--|
|---0-------------4---------2-------------2------1--|
|---------------4---------0-------------2------2----|
|-------------2-----------------------0-------------|
|-3--------0---------0-------------0---------4------|

 Guitar 1
|-----------------|
|-----------------|
|-4-4-4-4---------|
|-4-4-4-4-2-2-2-2-|
|-2-2-2-2-2-2-2-2-|
|---------0-0-0-0-|
|Guitar 2
|-----------------|
|-----------------|
|-7-7-7-7-9-9-9-9-|
|-----------------|
|-5-5-5-5-7-7-7-7-|
|-----------------|


--CHORUS

 Guitar 1
|----------------------|
|----------------------|
|------4----7----------|
|-5----4----7----7--6--|
|-5----2----5----7--7--|
|-3--------------5--4--|
|Guitar 2
|----------------------|
|----------------------|
|-4----7----7----9--13-|
|----------------------|
|-2----5----5----7--11-|
|----------------------|

 Lead
|-17h19-19-17-19~~------------------------------------------------|
|-------------------17h19-19-17-19~~~~-19-19-19-17~~~~-19p17\15~~-|
|-----------------------------------------------------------------|
|-----------------------------------------------------------------|
|-----------------------------------------------------------------|
|-----------------------------------------------------------------|

 Guitar 1
|-----------------------------------------|
|-----------------------------------------|
|-----------------------------------------|
|-----------------------------------------|
|-----------------------------------------|
|-7--0--10~~~~----10--0--5~~~~---0--------|
|Guitar 2
|-----------------------------------------|
|-----------------------------------------|
|-11----11--------11--11-9------/13-------|
|-----------------------------------------|
|-9-----9---------9---9--7------/11-------|
|-----------------------------------------|

 Lead
|-----------------------------------------|
|-15~~~~~~~~------15-15b17r15-12~~~~~~~~--|
|-----------------------------------------|
|-----------------------------------------|
|-----------------------------------------|
|-----------------------------------------|


--INTERLUDE
|---2--------------2--------------2--------------2------------|
|-----3--------------3--------------3--------------3----------|
|-------4--------------4--------------4--------------4--------|
|-------------------------------------------------------------|
|-2--------------2--------------2--------------2--------------|
|-------------------------------------------------------------|


--BRIDGE
|-------------------------------------------------------------------------------|
|-------------------------------------------------------------------------------|
|-16-----19-----12-----12-----14---15---16-----19-----12-----12-----14/15\14\12-|
|-------------------------------------------------------------------------------|
|-14-----17-----10-----10-----12---13---14-----17-----10-----10-----12/13\12\10-|
|----0-0----0-0----0-0----0-0----0----0----0-0----0-0----0-0----0-0-------------|

|-----------------------------------------------------------------|
|-----------------------------------------------------------------|
|-16-----19-----12-----12-----14---15---16-----19-----12----------|
|-----------------------------------------------------------------|
|-14-----17-----10-----10-----12---13---14-----17-----10----------|
|----0-0----0-0----0-0----0-0----0----0----0-0----0-0----X\\\\----|


--SOLO

 Guitar 1
|----------------------|
|----------------------|
|------4----7----------|
|-5----4----7----7--6--|
|-5----2----5----7--7--|
|-3--------------5--4--|
|Guitar 2
|----------------------|
|----------------------|
|-4----7----7----9--13-|
|----------------------|
|-2----5----5----7--11-|
|----------------------|

 Lead Guitar 1
|-17b19~~~~----------------------------------------------------------------------------------|
|------------/10~~~~--10h12-12gb14~~~~--10h12p10~~/17~~--15h17p15\14-14h15p14\12-12h14p12\10-|
|--------------------------------------------------------------------------------------------|
|--------------------------------------------------------------------------------------------|
|--------------------------------------------------------------------------------------------|
|--------------------------------------------------------------------------------------------|
|Lead Guitar 2
|-14b15~~~~----------------------------------------------------------------------------------|
|--------------------------------------------------------12h14p12\10-10h12p10\8--8h10p8\7----|
|------------/7~~~~~--7h9---9gb11~~~~~-------------------------------------------------------|
|---------------------------------------7h9p7~~~~~\6~~~--------------------------------------|
|--------------------------------------------------------------------------------------------|
|--------------------------------------------------------------------------------------------|

 Lead Guitar 1
 --------------------------------------------------------------17XXX-|
 10h12p10\8-8h10p8\7-7h8p7\5-7----3-5-7-8-10-15XXX-17XXX-19XXX-------|
 --------------------------------------------------------------------|
 --------------------------------------------------------------------|
 --------------------------------------------------------------------|
 --------------------------------------------------------------------|
 Lead Guitar 2
 --------------------------------------------------------------14XXX-|
 7h8p7\5----5h7p5\3--3h5p3\2-3---------------12XXX-14XXX-15XXX-------|
 ---------------------------------4-6-7-9-11-------------------------|
 --------------------------------------------------------------------|
 --------------------------------------------------------------------|
 --------------------------------------------------------------------|


--ALT CHORUS
|---------------------------------------------------------------|
|---------------------------------------------------------------|
|---------------------------------------------------------------|
|---------------------------------------------------------------|
|---------------------------------------------------------------|
|-3~~~~-0-7~~~~-0-10~~~~-0-5~~-4~~-0----0-3~~~~-0-7~~~~--10~~~~-|

 Lead
|-17h19-19-17-19~~------------------------------------------------|
|-------------------17h19-19-17-19~~~~-19-19-19-17~~~~-19p17\15~~-|
|-----------------------------------------------------------------|
|-----------------------------------------------------------------|
|-----------------------------------------------------------------|
|-----------------------------------------------------------------|

|-17h19-19-17-19~~--------------------------------17~~~~----------|
|-------------------17h19-19-17-19~~~~-19-19-19~~-----------------|
|-----------------------------------------------------------------|
|-----------------------------------------------------------------|
|-----------------------------------------------------------------|
|-----------------------------------------------------------------|


--CHORUS

 Guitar 1
|----------------------|
|----------------------|
|------4----7----------|
|-5----4----7----7--6--|
|-5----2----5----7--7--|
|-3--------------5--4--|
|Guitar 2
|----------------------|
|----------------------|
|-4----7----7----9--13-|
|----------------------|
|-2----5----5----7--11-|
|----------------------|

 Lead
|-17h19-19-17-19~~------------------------------------------------|
|-------------------17h19-19-17-19~~~~-19-19-19-17~~~~-19p17\15~~-|
|-----------------------------------------------------------------|
|-----------------------------------------------------------------|
|-----------------------------------------------------------------|
|-----------------------------------------------------------------|

 Guitar 1
|--------------------|
|--------------------|
|--------------------|
|--------------------|
|--------------------|
|-3~~~~-0-7~~-6~~----|
|Guitar 2
|--------------------|
|--------------------|
|-4~~~~---4~~-3~~----|
|--------------------|
|-2~~~~---2~~-1~~----|
|--------------------|

 Lead
|--------------------|
|-15~~~---12~~15~~\--|
|--------------------|
|--------------------|
|--------------------|
|--------------------|


--OUTRO
|-3----2----0----0--0--|
|-3----3----3----2--0--|
|-0----4----2----2--1--|
|-0----4----0----2--2--|
|-2----2---------0--x--|
|-3-----------------4--|

 Lead
|-17\--12~~~~--|
|--------------|
|--------------|
|--------------|
|--------------|
|--------------|

b   - bend
r   - release
gb  - gradual bend
gr  - gradual release
h   - hammer on
p   - pull off
T   - trill
W   - whammy bar dive
\   - slide down
/   - slide up
x   - mute
X\  - pick slide
~~~ - vibrato
*7  - artificial harmonic
*7* - natural harmonic
... - palm mute
(0) - optional note
XXX - tremolo pick
alt - variation of riff


************************************************************
------------------------------------------------------------
Track 10: (Come On) Let's Go!
------------------------------------------------------------

Artist:Smashing Pumpkins
Song:(Come On) Let's Go!

Since noone decided to tab it out, im gonna give it a try

 I've arranged this song for one guitar even though there are two,so you tune the bottom
down(being E A & D) 1 1/2 steps from standard tuning and the top three strings down 1/2
down from standard.FYI: The slides sound a whole lot better if you play the slides as
as you hit the note.

legend
- / = slide
- b = bend
- x = palm mute
- h = hammer on
- p = pull-off


But any way here we go:

Intro
start with a pickslide then:
D#|----------10-10/13-10-------------------------------------------------|
A#|-10-10/13-------------13-10-8-8/10--10-10h11p10-8----10--11-10-8b10---|
F#|--------------------------------------------------10---------------10-|
A#|----------------------------------------------------------------------|
F#|----------------------------------------------------------------------|
C#|----------------------------------------------------------------------|

|-10-10--8---------------------------------|
|----------10---13b15-10-8b|grad bend up|--|
|------------------------------------------|
|------------------------------------------|
|------------------------------------------|
|------------------------------------------|

NOTE: the intro is backed by the verse

verse:
D#|-------------------------------|
A#|-------------------------------|
F#|-------------------------------|  repeat 4x
A#|-----5-------------------------|
F#|-------3-3-3-5-------3-3-3-2---|
C#|-0-0-----------3-3-1-----------|
"come on lets go..."

bridge

|--------------------------------------------------------------------|
|--------------------------------------------------------------------|
|--------------------------------------------------------------------|
|-7-7--8--8--8/9---9-9--7--7--5---7-7--8--8/9---9-9--7--7--5---5/7---|
|-5-5--6--6--6/7---7-7--5--5--3---5-5--6--6/7---7-7--5--5--3---3/5---|
|--------------------------------------------------------------------|
 "you could be my friend..."

 The chorus is also backed by the verse

 chorus
|-------------------------------------------------------------------------|
|---1-3-3/6-3-1-----------------------1-3-3/6-3-1-------------------------|
|-2-------------2-0-2--2--2h3p2-----2-------------2-0--2-3-2-0---2-2--0---|
|-------------------------------7\0----------------------------5--------5-|
|-------------------------------------------------------------------------|
|-------------------------------------------------------------------------|
 "tears were once my only way back home.."

The verse part finishes the chorus

REPEAT VERSE

then this little fill of what i think is another bridge
|-------------------------------------------------------------|
|-1-2-3--3/6-3-1------------------1-2-3--3/6-3-1--------------|
|----------------2--3-2-0--2-0-------------------2--3-2-0-----|
|------------------------------5------------------------------|
|-------------------------------------------------------------|
|-------------------------------------------------------------|

and the power chords after it

|---------------------------------------------------|
|---------------------------------------------------|
|---------------------------------------------------|
|-5-5--7--5--5---4---5-5--7--5--5---4---7----7/9----|
|-3-3--5--3--3---2---3-3--5--3--3---2---5----5/7----|
|---------------------------------------------------|
 "anesthized im hallow playing to the dark back row"

The fill between the bridge and the solo is the verse part

solo
|---------------------13-10--------10--------------------------------------|
|-13b15-10-8-10-8-6---------13--13----10--13-10-8b10-8-6-------------------|
|--------------------------------------------------------------------------|
|--------------------------------------------------------------------------|
|--------------------------------------------------------------------------|
|--------------------------------------------------------pickslide---------|


-----------------------------------------------------------|
-10-11-10-8b9-6--13b15-10-8b-(grad bend up)----------------|
-----------------------------------------------------------|
-----------------------------------------------------------|
-----------------------------------------------------------|
-----------------------------------------------------------|

 im not very sure but i think this another fill
|-------------------------------------------------------------------|
|-------------------------------------------------------------------|
|-------------------------------------------------------------------|
|-------9-9-9-9------12-12-12-12-------9-9-9-9-------12-12-12-12----|
|-------7-7-7-7------10-10-10-10-------7-7-7-7-------10-10-10-10----|
|-0-0-0---------0-0-0------------0-0-0---------0-0-0----------------|
 "assimilate, its all been staged..."

--------------------------------|-------------------|
--------------------------------|-------------------|
--------------------------------|on last part-------|   repeat 2x
------9-9\7--7-------9-9/12--12-|-------------------|
------7-7\5--5-------7-7/10--10-|-------------------|
-0-0-0---------0-0-0------------|-00000000000-------|

|------------------------------------------------------------------|
|------------------------------------------------------------------|
|------------------------------------------------------------------|
|--7-5-3-3--5-3-2---7-5-3-3--5-3-4--7-7---7-5-3-3--5-3-2--2--2-2/4-|
|--------------------------------2--5-5----------------------------|
|------------------------------------------------------------------|
 "Lord Save Me.."

Repeat Verse 4x

Repeat Chorus until the end backed by the verse


And there you go! Have Fun. Please Rate.


************************************************************
------------------------------------------------------------
Track 11: For God And Country
------------------------------------------------------------

  	 For God And Country Tab by Smashing Pumpkins, www.Ultimate-Guitar.Com

Complimentary "For God And Country" ringtone

Title: For God and Country (Acoustic Version Played Live 07)
Artist: Smashing Pumpkins
Album: Zeitgeist Tour
Tuning: Standard


INTRO

e|--1----1---------3----0----1-----1----------3-|
B|--3----1----1----3----1----3-----3----1-----3-|
G|--2----2----2----0----0—---2-----2----2-----0-|
D|-------3----2----0----2----------3----2-----0-|       x2
A|-------3---------2----3----------3----------2-|
E|-------1---------3---------------1----------3-|

VERSE

e|--1----1---------3----0----1-----1----------3-|
B|--3----1----1----3----1----3-----3----1-----3-|
G|--2----2----2----0----0—---2-----2----2-----0-|
D|-------3----2----0----2----------3----2-----2-|
A|-------3---------2----3----------3----------2-|
E|-------1---------3---------------1----------3-|

e|--1----1---------3----0----1-----1---|
B|--3----1----1----3----1----3-----3---|
G|--2----2----2----0----0—---2-----2---|
D|-------3----2----0----2----------3---|
A|-------3---------2----3----------3---|
E|-------1---------3---------------1---|


CHORUS

e|-1---------1----1-|
B|-1----1----3----1-|
G|-2----2----2----2-|
D|-1----2---------3-|
A|-3--------------3-|
E|-1--------------1-|

e|-1---------1----1-----------|
B|-1----1----3----1-----------|
G|-2----2----2----2----1----1-|
D|-1----2---------3----2----1-|
A|-3--------------3----2----2-|
E|-1--------------1-----------|


VERSE

e|-----------------------|
B|-1----1-----1----1-----|
G|-2----0-----2----0-----|
D|-2----2-----2----2-----|
A|-----------------------|
E|-----------------------|


e|--1----1---------3----0---|
B|--3----1----1----3----1---|
G|--2----2----2----0----0—--|
D|-------3----2----0----2---|
A|-------3---------2----3---|
E|-------1---------3--------|

e|--1----1---------3----|
B|--3----1----1----3----|
G|--2----2----2----0----|     x2
D|-------3----2----0----|
A|-------3---------2----|
E|-------1---------3----|

e|--1----1---------(3)----|
B|--3----1----1----(3)----|
G|--2----2----2----(0)----|
D|-------3----2----(0)----|
A|-------3---------(2)----|
E|-------1---------(3)----|

VERSE

e|--1----1---------3----|
B|--3----1----1----3----|
G|--2----2----2----0----|
D|-------3----2----0----|
A|-------3---------2----|
E|-------1---------3----|

e|--1----1---------3----0----1-----1----------3-|
B|--3----1----1----3----1----3-----3----1-----3-|
G|--2----2----2----0----0—---2-----2----2-----0-|
D|-------3----2----0----2----------3----2-----0-|
A|-------3---------2----3----------3----------2-|
E|-------1---------3---------------1----------3-|

e|--1----1---------3----0----1-----1---|
B|--3----1----1----3----1----3-----3---|
G|--2----2----2----0----0—---2-----2---|
D|-------3----2----0----2----------3---|
A|-------3---------2----3----------3---|
E|-------1---------3---------------1---|

e|-----------------------|
B|-1----1-----1----1-----|
G|-2----0-----2----0-----|
D|-2----2-----2----2-----|
A|-----------------------|
E|-----------------------|

CHORUS

e|--1----1---------3----0---|
B|--3----1----1----3----1---|
G|--2----2----2----0----0—--|
D|-------3----2----0----2---|
A|-------3---------2----3---|
E|-------1---------3--------|

e|--1----1---------3----|
B|--3----1----1----3----|
G|--2----2----2----0----|
D|-------3----2----0----|       x2
A|-------3---------2----|
E|-------1---------3----|

e|--1----1---------(3)----|
B|--3----1----1----(3)----|
G|--2----2----2----(0)----|
D|-------3----2----(0)----|
A|-------3---------(2)----|
E|-------1---------(3)----|


VERSE

e|--1----1---------3----|
B|--3----1----1----3----|
G|--2----2----2----0----|
D|-------3----2----0----|
A|-------3---------2----|
E|-------1---------3----|

e|--1----1---------3----0----1-----1----------3-|
B|--3----1----1----3----1----3-----3----1-----3-|
G|--2----2----2----0----0—---2-----2----2-----0-|
D|-------3----2----0----2----------3----2-----2-|
A|-------3---------2----3----------3----------2-|
E|-------1---------3---------------1----------3-|

e|-1----1---------3----0----1-----1---|
B|-3----1----1----3----1----3-----3---|
G|-2----2----2----0----0—---2-----2---|
D|------3----2----0----2----------3---|
A|------3---------2----3----------3---|
E|------1---------3---------------1---|


CHORUS

e|-1---------1----1-|
B|-1----1----3----1-|
G|-2----2----2----2-|
D|-1----2---------3-|
A|-3--------------3-|
E|-1--------------1-|


e|-1---------1----1-----------|
B|-1----1----3----1-----------|
G|-2----2----2----2----1----1-|
D|-1----2---------3----2----1-|
A|-3--------------3----2----2-|
E|-1--------------1-----------|


VERSE

e|-1---------1----1-|
B|-2----1----1----3-|
G|-2----0----2----2-|         x3
D|------2----3------|
A|------3----3------|
E|-----------1------|

e|-1---------1----1-----------|
B|-2----1----3----1-----------|
G|-2----0----2----2----1---2--|
D|------2---------3----2---2--|
A|------3---------3----2---1--|
E|----------------1-----------|

e|-----------------------|
B|-1----1-----1----1-----|
G|-2----0-----2----0-----|
D|-2----2-----2----2-----|
A|-----------------------|
E|-----------------------|

e|--1----1---------3----0---|
B|--3----1----1----3----1---|
G|--2----2----2----0----0—--|
D|-------3----2----0----2---|
A|-------3---------2----3---|
E|-------1---------3--------|

e|--1----1---------3----|
B|--3----1----1----3----|
G|--2----2----2----0----|           x2
D|-------3----2----0----|
A|-------3---------2----|
E|-------1---------3----|

e|--1----1---------(3)----|
B|--3----1----1----(3)----|
G|--2----2----2----(0)----|
D|-------3----2----(0)----|
A|-------3---------(2)----|
E|-------1---------(3)----|

e|--1----1---------3----|
B|--3----1----1----3----|
G|--2----2----2----0----|
D|-------3----2----0----|
A|-------3---------2----|
E|-------1---------3----|
OUTRO

e|-1----------1----1----1----3-|
B|-1----1-----3----1----1----3-|
G|-2----2-----2----2----2----0-|
D|-3----2----------3----3----0-|               x5
A|-3---------------3----3----2-|
E|-1---------------1----1----3-|

e|-1----------1----1---------------|
B|-1----1-----3----1-------------1-|
G|-2----2-----2----2----1----1---2-|
D|-3----2----------3----2----1---2-|
A|-3---------------3----2----2-----|
E|-1---------------1---------------|


************************************************************
------------------------------------------------------------
Track 12: Pomp And Circumstances
------------------------------------------------------------

Pomp and Circumstances

Tuning: E A D G B E (standard E)


INTRO (la la la la la la laaa laaa laaa)
 Synth arranged for guitar
|-------------------------------|-------------------------------|
|---5~~~~~~~-3~~~---------------|-3-5~~~~~~~-3~~~---------------|
|-----------------5~~~-5~~~~~~~-|-----------------5~~~-5~~~~~~~-|
|----------------------5~~~~~~~-|----------------------5~~~~~~~-|
|----------------------3~~~~~~~-|----------------------3~~~~~~~-|
|-------------------------------|-------------------------------|

VERSE
 Synth arranged for guitar
|-------------------------------|
|-3-5~~~~~~~-3~~~---------------|
|-----------------5~~~-5~~~~~~~-|
|----------------------5~~~~~~~-|
|----------------------3~~~~~~~-|
|-------------------------------|

BRIDGE

|-------------------------------------------------|
|-5~~~~~~~----------3~~~~~~~(3)~~~~~~~(3)~~~~~~-5-|
|----------5~~~~~~~-------------------------------|
|-------------------------------------------------|
|-------------------------------------------------|
|-------------------------------------------------|

 -------------------------------------------|
 -------5~~~~~~~-3~~~~~~~----------3--------|
 -5-----------------------5~~~~~~~------5---|
 -------------------------------------------|
 -------------------------------------------|
 -------------------------------------------|


CHORUS (la la la la la la laaa laaa laaa)
 Synth arranged for guitar
|-------------------------------|-------------------------------|
|---5~~~~~~~-3~~~-5~~~----------|-3-5~~~~~~~-3~~~-5~~~----------|
|----------------------5~~~~~~~-|----------------------5~~~~~~~-|
|----------------------5~~~~~~~-|----------------------5~~~~~~~-|
|----------------------3~~~~~~~-|----------------------3~~~~~~~-|
|-------------------------------|-------------------------------|


SOLO
 Lead1
|------------------------------------------------|
|-/13~~~~-12~~-13-13~~---------------13~~~-12/13-|
|----------------------12-12~~~~~~~\-------------|
|------------------------------------------------|
|------------------------------------------------|
|------------------------------------------------|

 --------------------------------------------|
 -13~~~~-15~~-17-17~~-15-17~~~~~~~~~~~~~~~~--|
 --------------------------------------------|
 --------------------------------------------|
 --------------------------------------------|
 --------------------------------------------|

|Lead 2
|----------------------------------------------------------------------------|
|-/17~~~~-15~~-17-17~~---------------17~~~-15/17--17~~~~-20~~-22-22~~-20-22~-|
|----------------------17-17~~~~~~~\-----------------------------------------|
|----------------------------------------------------------------------------|
|----------------------------------------------------------------------------|
|----------------------------------------------------------------------------|


 ------------------|
 ~~~~~~~~~~~~~~~~--|
 ------------------|
 ------------------|
 ------------------|
 ------------------|


Lead (02:54)
|----------------------------------------------------|
|----------------------------------------------------|
|-7/9~~~~/12~~~~/14\12~~~~~~~~-12~~~~-12\9~~\7~~\5~~-|
|----------------------------------------------------|
|----------------------------------------------------|
|----------------------------------------------------|

 -----------------------------------------|
 -----------------------------------------|
 ~~~~~/9\5~~~~~~~~-5h7/9~~~~-9\5~~~~~~~---|
 -----------------------------------------|
 -----------------------------------------|
 -----------------------------------------|

|------------------------15b17-----------------------------------15b17------------|
|-13~~~~-12~~-13-13~~-----------17gr15----13~~~~-12~~-13-13~~-----------17gr15----|
|---------------------12--------------------------------------12------------------|
|---------------------------------------------------------------------------------|
|---------------------------------------------------------------------------------|
|---------------------------------------------------------------------------------|

|------------------------15b17-----------------------------------15b17-----------------------|
|-13~~~~-12~~-13-13~~-----------17gr15----13~~~~-12~~-13-13~~-----------17gr15p13-17~~~~~~~~-|
|---------------------12--------------------------------------12-----------------------------|
|--------------------------------------------------------------------------------------------|
|--------------------------------------------------------------------------------------------|
|--------------------------------------------------------------------------------------------|

*************************************************************************

FINISHED

whoa that was alot, Hope this helps as UG doesnt have all the tabs here.
Tap to rate this tab
# A B C D E F G H I J K L M N O P Q R S T U V W X Y Z