Song name
# A B C D E F G H I J K L M N O P Q R S T U V W X Y Z

Smashing Pumpkins - Without You Cool As Ice Cream tab

Ok here it is "Without you (Cool as ice cream)" from Adore demos II, my favourite.

Very easy song. enjoy!


Please comment!

Eb tunning


Verse

|--------------------------------------------------------------|
|-------------0-----------0--------------0----------0----------|
|-------2---------2--------------2------------2----------------|
|--------------------------------------------------------------|
|--------------------------------------------------------------|
|----3-----3----------3-------0------0-----------0-------------|


Pre-verse:

Dsus  Am
Dsus  Am
Bm     Am


Chorus:

Em  Bm  Am x3

Em


Verse 2: Same as verse 1

Pre-verse 2:

Dsus Am

Bm


Chorus 2: Same as chorus 1


Verse 3 (Instrumental)

(Repeat this x2)
|--------------------------------------------------------------|
|-------------0-------------0--------------0-----------0-------|
|-------2-----------2---------------2-------------2------------|
|--------------------------------------------------------------|
|--------------------------------------------------------------|
|----3-----3-----3-------3-------0-----0-------0-----0---------|

Then:
|--------------------------------------------------------------|
|-------------0-------------0----------------------------------|
|-------2-----------2---------------2---2/4-----4\2--2--0------|
|--------------------------------------------------------------|
|--------------------------------------------------------------|
|----3-----3-----3-------3-------0------0---------0------------|


Pre-verse 3:

|--------------0----------------------------3-------2--2--2---0--0----|
|--------3--------3-----3--------0h1-----1-----1----3--3--3---1--1----|
|-----2-----2--------2------------------------------4--4--4---2--0----|
|--0--------------------------2---------------------4--4--4---2--2----|
|--------------------------0------------------------2--2--2---0--3----|
|---------------------------------------------------------------------|


Chorus 3:

Same  Em Bm Am*

end on Em

*For the Am chord do this:

----0-----0--0---3--0---|
----1-----1--0h1-1--1---|
----2-----2--2---2--2---|
----2-----2--2---2--2---|
----0-----0--0---0--0---|
------------------------|
Tap to rate this tab
# A B C D E F G H I J K L M N O P Q R S T U V W X Y Z