Song name
# A B C D E F G H I J K L M N O P Q R S T U V W X Y Z

Smile Empty Soul - Californias Lonely tab

Tuning: Db Ab Db Gb Bb eb

Intro
|---------------------------------|
|---------------------------------|
|---11-11--10--11---11-11--10--11-|
|---------------------------------|
|-9---------------9---------------|
|---------------------------------|

Verse
|--------------------------------|
|--------------------------------|
|-------------------11-11--11-11-|
|------11--11-11-----------------|
|----------------9-----------9---|
|-9--9-------9-------------------|

Why i'm never happy...
|---------------------|
|---------------------|
|---------------------|
|-11--11-11--11-11-11-|
|-11--11-11--11-11-11-|
|--9---9--9---9--9--9-|

Chorus/Bridge
|---------------------------------------------------------------------------------|
|---------------------------------------------------------------------------------|
|---------------------------------------------------------------------------------|
|-12--12-12--12-12-12-11--11-11--11-11-11-10--10-10--10-10-10-10--10-10--10-10-10-|
|-12--12-12--12-12-12-11--11-11--11-11-11-10--10-10--10-10-10-10--10-10--10-10-10-|
|-10--10-10--10-10-10--9---9--9---9--9--9--8---8--8---8--8--8--8---8--8---8--8--8-|
Tap to rate this tab
 
# A B C D E F G H I J K L M N O P Q R S T U V W X Y Z