Song name
# A B C D E F G H I J K L M N O P Q R S T U V W X Y Z

Smile Empty Soul - For You tab

Nobody has the correct intro, this is how Sean plays it live

Intro: Clean with flanger
eb|-----------------------------------------------|
Bb|-----------------------------------------------|
Gb|-----10-10p9---9-9p7---7-7p5---5-5p0-----------|
Db|-----------------------------------------------|
Ab|--0---------------------------------------0----|
Db|--0---------------------------------------0----|

eb|-----------------------------------------------|
Bb|-10-10-10---10--9-9-9---9--7-7-7---7--5-5-5---5|
Gb|-10-10-10---10--9-9-9---9--7-7-7---7--5-5-5---5|
Db|-10-10-10---10--9-9-9---9--7-7-7---7--5-5-5---5|
Ab|--8--8—-8----8--7-7-7---7--5-5-5---5--3-3-3---3|
Db|-----------------------------------------------|

Verse:  Clean with flanger
eb|-----------------------------------------------------|
Bb|-----------------------------------------------------|
Gb|------10-10-10---10--9-9-9---9--7-7-7---7--5-5-5---5-|
Db|------10-10-10---10--9-9-9---9--7-7-7---7--5-5-5---5-|
Ab|--0----8--8—-8----8--7-7-7---7--5-5-5---5--3-3-3---3-|
Db|--0----0--0--0----0--0-0-0---0--0-0-0---0--0-0-0---0-|

eb|-------------------------------------------------|
Bb|-------------------------------------------------|
Gb|----------------------------10-10-10---\--5-5-5--|
Db|--3-3-3---3-/-5-5-5---5------x--x--x---\--x-x-x--|
Ab|--3-3-3---3-/-5-5-5---5--0---8--8--8---\--3-3-3--|
Db|--3-3-3---3-/-5-5-5---5--0-----------------------|

Chorus:  Clean with flanger
eb|----------------------------------------|
Bb|----------------------------------------|
Gb|-----------------2-2-2------------------|
Db|--8-8-8-8-8-8--0-0-0-0---3x-3x--3-3-/-5-|
Ab|--8-8-8-8-8-8--0-0-0-0---3x-3x--3-3-/-5-|
Db|--8-8-8-8-8-8--0-0-0-0---3x-3x--3-3-/-5-|

eb|-------------------------------------------|
Bb|-------------------------------------------|
Gb|-------------------------------------------|
Db|--5-5-5-5-5--5-5--5-5-5-5-5-5---5-5-(/-8)--|
Ab|--5-5-5-5-5--5-5--5-5-5-5-5-5---5-5-(/-8)--|
Db|--5-5-5-5-5--5-5--5-5-5-5-5-5---5-5-(/-8)--|

Last Chorus Run-through:
eb|-------------------------------------------|
Bb|-------------------------------------------|
Gb|-------------------------10-10-10-/-9-9-9--|
Db|--8-8-8-8-8-8--0-0-0-0---x--x--x--/-x-x-x--|
Ab|--8-8-8-8-8-8--0-0-0-0---8--8--8--/-7-7-7--|
Db|--8-8-8-8-8-8--0-0-0-0---------------------|

Interlude Clean with flanger “Why does always…
eb|---------------------------------------------|
Bb|---------------------------------------------|
Gb|------10-10-10-10---9-9-9---9-9--7-7-7---7-7-|
Db|------10-10-10-10---9-9-9---9-9--7-7-7---7-7-|
Ab|--0----8--8--8--8---7-7-7---7-7--5-5-5---5-5-|
Db|--0----0--0--0--0---0-0-0---0-0--0-0-0---0-0-|

eb|----------------------------------------------|
Bb|----------------------------------------------|
Gb|--5-5-5--------------------10-10-10-\--5-5-5--|
Db|--5-5-5---3x-3x--5x-5x--0--x--x--x--\--x-x-x--|
Ab|--3-3-3---3x-3x--5x-5x--0--8--8--8--\--3-3-3--|
Db|--0-0-0---3x-3x--5x-5x--0---------------------|

Outro (With Distortion)
eb|----------------------------------------------------|
Bb|----------------------------------------------------|
Gb|------10-10-10-10---9-9-9---9--7-7-7---7--5-5-5---5-|
Db|------10-10-10-10---9-9-9---9--7-7-7---7--5-5-5---5-|
Ab|-------8--8--8--8---7-7-7---7--5-5-5---5--3-3-3---3-|
Db|--0----0--0--0--0---0-0-0---0--0-0-0---0--0-0-0---0-|

eb|------------------------------------------------------|
Bb|------------------------------------------------------|
Gb|---------14-14-14-14--12-12-12-12--9-9-9-9--10-10-10--|
Db|---------x--x--x--x---x--x--x--x---x-x-x-x--x--x--x---|
Ab|---------12-12-12-12--10-10-10-10--7-7-7-7--8--8--8---|
Db|-----0---0--------------------------------------------|

eb|--------------------------------------------------------------|
Bb|--------------------------------------------------------------|
Gb|------10-10-10---10---9-9-9---9--7-7-7---7--5-5-5-(hold)5-/7--|
Db|------10-10-10---10---9-9-9---9--7-7-7---7--5-5-5-------5-/7--|
Ab|-------8--8--8----8---7-7-7---7--5-5-5---5--3-3-3--0-2--3-/5--|
Db|--0----0--0--0----0---0-0-0---0--0-0-0---0--0-0-0-------------|
Tap to rate this tab
 
# A B C D E F G H I J K L M N O P Q R S T U V W X Y Z