Guitaretab - guitar tabs
Song name
# A B C D E F G H I J K L M N O P Q R S T U V W X Y Z

Smile Empty Soul - Who I Am tab

Smile Empty Soul  Who I Am
Tuning: Drop C
~~ = Slide
(x#) = How many time played

I only did Sean version of playing, the number of time hitting the chord is probably off 
one or two. So just rely on your timing


   Intro: Played 10 Times
D|--------------------------------------------------------------------------|
A|--------------------------------------------------------------------------|
F|--------------------------------------------------------------------------|
C|-----------------------------------9-9-9-9--------------------------------|
G|-------------- 6-6-6-6----7-7-7-7-----------------------------------------|
C|------6-6-6-6-------------------------------------------------------------|

   Pre-Chorus: Played 1 Time
D|--------------------------------------------------------------------------|
A|--------------------------------------------------------------------------|
F|--5----------7-------------5----------------------------------------------|
C|--3-------0--x--0--0-------3------0--7--10--------------------------------|
G|--3(x8)--0--5-0--0(x4)---3(x8)--0--7-10(x4)----------------------------|
C|--3-------0--0--0--0-------3------0--7--10--------------------------------|
       Chorus: Played 1 Time
D|--------------------------------------------------------------------------|
A|--------------------------------------------------------------------------|
F|--------5-----------------------------------------------------------------|
C|--0-----5(x5)-5-----8-----3-----5-----8------2----------------------------|
G|--0(x5)-3-----5(x5)-8(x5)-3(x5)-5(x5)-8(x10)2(x4)------------------------|
C|--0-----------5-----8-----3-----5-----8------2----------------------------|

D|--------------------------------------------------------------------------|
A|--------------------------------------------------------------------------|
F|--------5-----------------------------------5~~7--------------------------|
C|--0-----5(x5)-5-----8-----3-----5-----8-----3~~5--------------------------|
G|--0(x5)-3-----5(x5)-8(x5)-3(x5)-5(x5)-8(x8)3~~5--------------------------|
C|--0-----------5-----8-----3-----5-----8-----3~~5--------------------------|

   Intro: Played 6 Times
D|--------------------------------------------------------------------------|
A|--------------------------------------------------------------------------|
F|--------------------------------------------------------------------------|
C|-----------------------------------9-9-9-9--------------------------------|
G|-------------- 6-6-6-6----7-7-7-7-----------------------------------------|
C|------6-6-6-6-------------------------------------------------------------|
[ Tab from: http://www.guitaretab.com/s/smile-empty-soul/131855.html ]
   Pre-Chorus: Played 1 Time
D|--------------------------------------------------------------------------|
A|--------------------------------------------------------------------------|
F|--5----------7-------------5----------------------------------------------|
C|--3-------0--x--0--0-------3------0--7--10--------------------------------|
G|--3(x8)--0--5-0--0(x4)---3(x8)--0--7-10(x4)----------------------------|
C|--3-------0--0--0--0-------3------0--7--10--------------------------------|
    Chorus: Played 1 Time
D|--------------------------------------------------------------------------|
A|--------------------------------------------------------------------------|
F|--------5-----------------------------------------------------------------|
C|--0-----5(x5)-5-----8-----3-----5-----8------2----------------------------|
G|--0(x5)-3-----5(x5)-8(x5)-3(x5)-5(x5)-8(x10)2(x4)------------------------|
C|--0-----------5-----8-----3-----5-----8------2----------------------------|

D|--------------------------------------------------------------------------|
A|--------------------------------------------------------------------------|
F|--------5-----------------------------------------------------------------|
C|--0-----5(x5)-5-----8-----3-----5-----8-----------------------------------|
G|--0(x5)-3-----5(x5)-8(x5)-3(x5)-5(x5)-8(x8)------------------------------|
C|--0-----------5-----8-----3-----5-----8-----------------------------------|

    Bridge: Played 2 Times
D|--------------------------------------------------------------------------|
A|--------------------------------------------------------------------------|
F|-5----~~9----~~10---~~7------------(x2)-----------------------------------|
C|-3----~~7----~~8----~~5------------(x2)-----------------------------------|

G|-3(x8)~~7(x8)~~8(x8)~~5(x8)--------(x2)-----------------------------------|
C|-3----~~7----~~8----~~5------------(x2)-----------------------------------|

    Pre Chorus: Played 1 Time
D|--------------------------------------------------------------------------|
A|--------------------------------------------------------------------------|
F|-0-----10-----5------8----------------------------------------------------|
C|-0-----10-----5------8----------------------------------------------------|
G|-0(x5)-10(x5)-5(x5)-8(x5)------------------------------------------------|
C|-0-----10-----5------8----------------------------------------------------|
     Chorus: Played 1 Time
D|--------------------------------------------------------------------------|
A|--------------------------------------------------------------------------|
F|--------5-----------------------------------------------------------------|
C|--0-----5(x5)-5-----8-----3-----5-----8------2----------------------------|
G|--0(x5)-3-----5(x5)-8(x5)-3(x5)-5(x5)-8(x10)2(x4)------------------------|
C|--0-----------5-----8-----3-----5-----8------2----------------------------|

D|--------------------------------------------------------------------------|
A|--------------------------------------------------------------------------|
F|--------5-----------------------------------5~~7~~10----------------------|
C|--0-----5(x5)-5-----8-----3-----5-----8-----3~~5~~8-----------------------|
G|--0(x5)-3-----5(x5)-8(x5)-3(x5)-5(x5)-8(x8)3~~5~~8-----------------------|
C|--0-----------5-----8-----3-----5-----8-----3~~5~~8-----------------------|
Related for Who I Am tab