Song name
# A B C D E F G H I J K L M N O P Q R S T U V W X Y Z

Smile Empty Soul - Meaningless tab

Db Ab Db Gb Bb Eb tuning not tabbin the timing

intro:
------------|
------------|
7----2----3-|
X----X----X-|
5----0----1-|
------------|

Verse:
------------|
------------|
7----2----3-|
X----X----X-|
5----0----1-|
------------|

Chorus:
-----------------------------|
-----------------------------|
-----------------------------|
0-7-5-3--8-7-5--7-5-3--5-3-0-|
0-7-5-3--8-7-5--7-5-3--5-3-0-|
0-7-5-3--8-7-5--7-5-3--5-3-0-|

Verse 2 (same as verse one n intro)
then u play the chorus then play the bridge

Bridge:
----------|
----------|
----------|
0-0-0-0-0-|
0-0-0-0-0-|
0-0-0-0-0-|

then play the chorus then the outro is the sameas the chrous so ur done learnin the song yay
Tap to rate this tab
# A B C D E F G H I J K L M N O P Q R S T U V W X Y Z