Song name
# A B C D E F G H I J K L M N O P Q R S T U V W X Y Z

Smile Empty Soul - Loser tab

Intro
|---------------------------------------------------------------|
|---------------------------------------------------------------|
|-6-------6-----5-------5-----5---------------------------------|
|-8-8-8-8-8-8-8-6-6-6-6-6-6-6-6---------5-------------5-----5---|
|-------------------------------6-6-6-6-6-6-6-6-6-6-6-6-6-6-6---|
|-------------------------------------------------------------6-|

|-------------------------------------------------------------|
|-------------------------------------------------------------|
|-6-------6-----5-------5-----5-------------------------------|
|-8-8-8-8-8-8-8-6-6-6-6-6-6-6-6---------5-------------6/7/6---|
|-------------------------------6-6-6-6-6-6-6-6-6-6-6-------6-|
|-------------------------------------------------------------|

|-----------------------------------------------------------------|
|-----------------------------------------------------------------|
|-2-2-2-2-2-2-2-2-------------------------------------------------|
|-2-2-2-2-2-2-2-2-7-7-7-7-7-7-7-7-6-6-6-6-6-6-6-6-6-6-6-6-6-6-6-6-|
|-0-0-0-0-0-0-0-0-7-7-7-7-7-7-7-7-6-6-6-6-6-6-6-6-6-6-6-6-6-6-6-6-|
|-----------------5-5-5-5-5-5-5-5-4-4-4-4-4-4-4-4-4-4-4-4-4-4-4-4-|

|-----------------------------------------------------------------|
|-----------------------------------------------------------------|
|-2-2-2-2-2-2-2-2-------------------------------------------------|
|-2-2-2-2-2-2-2-2-7-7-7-7-7-7-7-7-6-6-6-6-6-6-6-6-6-6-6-6-6/7/6---|
|-0-0-0-0-0-0-0-0-7-7-7-7-7-7-7-7-6-6-6-6-6-6-6-6-6-6-6-6-------6-|
|-----------------5-5-5-5-5-5-5-5-4-4-4-4-4-4-4-4-4-4-4-4---------|

2nd Part of Verse
|-----------------------------------------------------------------|
|-----------------------------------------------------------------|
|-6-6-6-6-6-6-6-6-5-5-5-5-5-5-5-5---------------------------------|
|-8-8-8-8-8-8-8-8-6-6-6-6-6-6-6-6-5-5-5-5-5-5-5-5-5-5-5-5-5-5-5-5-|
|---------------------------------6-6-6-6-6-6-6-6-6-6-6-6-6-6-6-6-|
|-----------------------------------------------------------------|

Chorus 1 Clean
|-----------------------------------------------------------------|
|-----------------------------------------------------------------|
|---------------------------------7-7-7-7-7-7-7-7-5-5-5-5-5-5-5-5-|
|-5-5-5-5-5-5-5-5-7-7-7-7-7-7-7-7-7-7-7-7-7-7-7-7-5-5-5-5-5-5-5-5-|
|-5-5-5-5-5-5-5-5-7-7-7-7-7-7-7-7-5-5-5-5-5-5-5-5-3-3-3-3-3-3-3-3-|
|-3-3-3-3-3-3-3-3-5-5-5-5-5-5-5-5---------------------------------|

Chorus 2 Distortion
|-----------------------------------------------------------------|
|-----------------------------------------------------------------|
|-----------------------------------------------------------------|
|-0-5-5-5-5-5-5-5-0-7-7-7-7-7-7-7-0-9-9-9-9-9-9-9-0-3-3-3-3-3-3-3-|
|-0-5-5-5-5-5-5-5-0-7-7-7-7-7-7-7-0-9-9-9-9-9-9-9-0-3-3-3-3-3-3-3-|
|-0-5-5-5-5-5-5-5-0-7-7-7-7-7-7-7-0-9-9-9-9-9-9-9-0-3-3-3-3-3-3-3-|

Solo
Coming Soon!
Tap to rate this tab
# A B C D E F G H I J K L M N O P Q R S T U V W X Y Z