Song name
# A B C D E F G H I J K L M N O P Q R S T U V W X Y Z

Smile Empty Soul - Hollywood tab

Song: Hollywood (Hidden Track)
Band: Smile Empty Soul
Album: Vultures
Tuning: Db Ab Db Gb Bb eb (i think)

Intro/Verse
|-------------------------------------------------------------------------------------------------|
|-------------------------------------------------------------------------------------------------|
|-------------------------------------------------------------------------------------------------|
|-------------------------------------------------------------------------------------------------|
|-------------------------------------------------------------------------------------------------|
|-12h14-12h14-12h14-12h14-12h14-12h14-12h14-12h14-10h11-10h11-10h11-10h11-10h11-10h11-10h11-10h11-|

Chorus
|-----------------------------------------------------------------|
|-----------------------------------------------------------------|
|---------------------------------3-3-3-3-3-3-3-3-----------------|
|-2-2-2-2-2-2-2-2-2-2-2-2-2-2-2-2-3-3-3-3-3-3-3-3-1-1-1-1-1-1-1-1-|
|-2-2-2-2-2-2-2-2-2-2-2-2-2-2-2-2-1-1-1-1-1-1-1-1-1-1-1-1-1-1-1-1-|
|-2-2-2-2-2-2-2-2-2-2-2-2-2-2-2-2-----------------1-1-1-1-1-1-1-1-|

I'm still working on the solo, i'll post it when i've figured it out
Tap to rate this tab
 
# A B C D E F G H I J K L M N O P Q R S T U V W X Y Z