Song name
# A B C D E F G H I J K L M N O P Q R S T U V W X Y Z

Smile Empty Soul - Live Forever tab

Intro/Verse/Chorus
|-----------------------------------------------------|
|-----------------------------------------------------|
|-----------------------------------------------------|
|-7--7-7-7-5--5-5-5-5-5-5-5-8--8-8-8-3--3-3-5-5-5-5-5-|
|-7--7-7-7-5--5-5-5-5-5-5-5-8--8-8-8-3--3-3-5-5-5-5-5-|
|-7--7-7-7-5--5-5-5-5-5-5-5-8--8-8-8-3--3-3-5-5-5-5-5-|

Bridge Rhythm Guitar
|-----------------------------------------------------------------|
|-----------------------------------------------------------------|
|-----------------------------------------------------------------|
|-9-9-9-9-9-9-9-9-9-9-9-9-9-9-9-9-7-7-7-7-5-5-5-5-7-7-5-5-3-3-5-5-|
|-9-9-9-9-9-9-9-9-9-9-9-9-9-9-9-9-7-7-7-7-5-5-5-5-7-7-5-5-3-3-5-5-|
|-9-9-9-9-9-9-9-9-9-9-9-9-9-9-9-9-7-7-7-7-5-5-5-5-7-7-5-5-3-3-5-5-|

Bridge Lead Guitar
|---------------------------------------------------------------------------------|
|---------------------------------------------------------------------------------|
|-11-11-11-11-11-11-11-11-11-11-11-11-11-11-11-11---------------------------------|
|--x--x--x--x--x--x--x--x--x--x--x--x--x--x--x--x-7-7-7-7-5-5-5-5-7-7-5-5-3-3-5-5-|
|--9--9--9--9--9--9--9--9--9--9--9--9--9--9--9--9-7-7-7-7-5-5-5-5-7-7-5-5-3-3-5-5-|
|-------------------------------------------------7-7-7-7-5-5-5-5-7-7-5-5-3-3-5-5-|
Tap to rate this tab
# A B C D E F G H I J K L M N O P Q R S T U V W X Y Z