Guitaretab - guitar tabs
Song name
# A B C D E F G H I J K L M N O P Q R S T U V W X Y Z

Smile Empty Soul - Better Off Alone tab

Tuning: Db Ab Db Gb Bb eb

Intro
|---------------------------------------|
|---------------------------------------|
|--------11----------11----------9------|
|-9-9--9--x-9-9-9--9--x-9-7-7--7-x------|
|-9-9--9--9-9-9-9--9--9-9-7-7--7-7------|
|-9-9--9----9-9-9--9----9-7-7--7--------|

|---------------------------------------|
|---------------------------------------|
|--------11----------11----------9------|
|-9-9--9--x-9-9-9--9--x-9-7-7--7-x------|
|-9-9--9--9-9-9-9--9--9-9-7-7--7-7------|
|-9-9--9----9-9-9--9----9-7-7--7--------|

|-------------------------------------------------------------------------|
|-------------------------------------------------------------------------|
|---------11-11-11-11---------11-11-11-11---------9-9-9-9---------9-9-9-9-|
|-9-9-9-9--x--x--x--x-9-9-9-9--x--x--x--x-7-7-7-7-x-x-x-x-7-7-7-7-x-x-x-x-|
|-9-9-9-9--9--9--9--9-9-9-9-9--9--9--9--9-7-7-7-7-7-7-7-7-7-7-7-7-7-7-7-7-|
|-9-9-9-9-------------9-9-9-9-------------7-7-7-7---------7-7-7-7---------|

|-------------------------------------------------------------------------|
|-------------------------------------------------------------------------|
|---------11-11-11-11---------11-11-11-11---------9-9-9-9-----------------|
|-9-9-9-9--x--x--x--x-9-9-9-9--x--x--x--x-7-7-7-7-x-x-x-x-7-7-7-x-7-7-7-7-|
|-9-9-9-9--9--9--9--9-9-9-9-9--9--9--9--9-7-7-7-7-7-7-7-7-7-7-7-x-7-7-7-7-|
|-9-9-9-9-------------9-9-9-9-------------7-7-7-7---------7-7-7-x-7-7-7-7-|

Verse
|-----------------------------------------------------------------|
|-----------------------------------------------------------------|
|-----------------------------------------------------------------|
|-9-9-9-9-x-x-x-x-9-9-9-9-x-x-x-x-5-5-5-5-x-x-x-x-7-7-7-7-6-6-6-6-|
|-9-9-9-9-x-x-x-x-9-9-9-9-x-x-x-x-5-5-5-5-x-x-x-x-7-7-7-7-6-6-6-6-|
|-9-9-9-9-x-x-x-x-9-9-9-9-x-x-x-x-5-5-5-5-x-x-x-x-7-7-7-7-6-6-6-6-|
[ Tab from: http://www.guitaretab.com/s/smile-empty-soul/173346.html ]
|-----------------------------------------------------------------|
|-----------------------------------------------------------------|
|-----------------------------------------------------------------|
|-5-5-5-5-x-x-x-x-5-5-5-5-x-x-x-x-3-3-3-3-x-x-x-x-7-7-7-7-6-6-6-6-|
|-5-5-5-5-x-x-x-x-5-5-5-5-x-x-x-x-3-3-3-3-x-x-x-x-7-7-7-7-6-6-6-6-|
|-5-5-5-5-x-x-x-x-5-5-5-5-x-x-x-x-3-3-3-3-x-x-x-x-7-7-7-7-6-6-6-6-|

Pre Chorus
|------------------------------------------------|
|------------------------------------------------|
|----11-------9-------11-------9----9-9-9-9------|
|-9---x----7--x----9---x----7--x----x-x-x-x-x-x--|
|-9---9----7--7----9---9----7--7----7-7-7-7-x-x--|
|-9--------7-------9--------7---------------x-x--|

Chorus
|-----------------------------------------------------------------|
|-----------------------------------------------------------------|
|-----------------------------------------------------------------|
|-7-7-7-7-7-7-7-7-7-7-7-7-7-7-7-7-9-9-9-9-9-9-9-9-9-9-9-9-9-9-9-9-|
|-7-7-7-7-7-7-7-7-7-7-7-7-7-7-7-7-9-9-9-9-9-9-9-9-9-9-9-9-9-9-9-9-|
|-7-7-7-7-7-7-7-7-7-7-7-7-7-7-7-7-9-9-9-9-9-9-9-9-9-9-9-9-9-9-9-9-|

|--------------------------------------------------------------|
|--------------------------------------------------------------|
|--------------------------------------------------------------|
|-7-7-7-7-7-7-7-7-7-7-7-7-7-7-7-7-5-5-5-5-5-5-5-5--5---3---1---|
|-7-7-7-7-7-7-7-7-7-7-7-7-7-7-7-7-5-5-5-5-5-5-5-5--5---3---1---|
|-7-7-7-7-7-7-7-7-7-7-7-7-7-7-7-7-5-5-5-5-5-5-5-5--5---3---1---|

Bridge
|-----------------------------------------------------------------|
|-----------------------------------------------------------------|
|-7-7-7-7-7-7-7-7-9-9-9-9-9-9-9-9-7-7-7-7-7-7-7-7-5-5-5-5-5-5-5-5-|
|-x-x-x-x-x-x-x-x-x-x-x-x-x-x-x-x-x-x-x-x-x-x-x-x-x-x-x-x-x-x-x-x-|
|-5-5-5-5-5-5-5-5-7-7-7-7-7-7-7-7-5-5-5-5-5-5-5-5-3-3-3-3-3-3-3-3-|
|-----------------------------------------------------------------|
Related for Better Off Alone tab
Advertisement will be closed in 10 seconds