Song name
# A B C D E F G H I J K L M N O P Q R S T U V W X Y Z

Smile Empty Soul - Not Alright tab

Tuning: Db Ab Db Gb Bb eb

Intro/Verse
|---------------------------------------------------------------------|
|---------5----------------5----------------4----------------4--------|
|---5---5---5---5----5---5---5---5----4---4---4---4----4---4---4---4--|
|-----5-------5--------5-------5--------4-------4--------4-------4----|
|-3----------------3----------------2----------------2----------------|
|---------------------------------------------------------------------|

|------------------------------------------------|
|-5--5--5-5-5-5-5-5-5-5-4--4-4-4-4-4-4-4-4-4-4-4-|
|-5--5--5-5-5-5-5-5-5-5-4--4-4-4-4-4-4-4-4-4-4-4-|
|-5--5--5-5-5-5-5-5-5-5-4--4-4-4-4-4-4-4-4-4-4-4-|
|-3--3--3-3-3-3-3-3-3-3-2--2-2-2-2-2-2-2-2-2-2-2-|
|------------------------------------------------|

Pre Chorus
|-----------------------------------------------------------------|
|-7-7-7-7-7-7-7-7-5-5-5-5-5-5-5-5-4-4-4-4-4-4-4-4-4-4-4-4-4-4-4-4-|
|-7-7-7-7-7-7-7-7-5-5-5-5-5-5-5-5-4-4-4-4-4-4-4-4-4-4-4-4-4-4-4-4-|
|-7-7-7-7-7-7-7-7-5-5-5-5-5-5-5-5-4-4-4-4-4-4-4-4-4-4-4-4-4-4-4-4-|
|-5-5-5-5-5-5-5-5-3-3-3-3-3-3-3-3-2-2-2-2-2-2-2-2-2-2-2-2-2-2-2-2-|
|-----------------------------------------------------------------|

Chorus
|-----------------------------------------------------|
|-----------------------------------------------------|
|-------------5-5-5-5-5---4-4-4-4-4---5-5-5-5-4-4-4-4-|
|-5-5-5-5-5---5-5-5-5-5---4-4-4-4-4---5-5-5-5-4-4-4-4-|
|-5-5-5-5-5---3-3-3-3-3---2-2-2-2-2---3-3-3-3-2-2-2-2-|
|-3-3-3-3-3-------------------------------------------|

|-----------------------------------------------------------------|
|-----------------------------------------------------------------|
|-----------------5-5-5-5-5-5-5-5-4-4-4-4-4-4-4-4-5-5-5-5-4-4-4-4-|
|-5-5-5-5-5-5-5-5-5-5-5-5-5-5-5-5-4-4-4-4-4-4-4-4-5-5-5-5-4-4-4-4-|
|-5-5-5-5-5-5-5-5-3-3-3-3-3-3-3-3-2-2-2-2-2-2-2-2-3-3-3-3-2-2-2-2-|
|-3-3-3-3-3-3-3-3-------------------------------------------------|

Bridge
|-----------------------------------------------------------------|
|-----------------------------------------------------------------|
|---------5-5-5-5-4-4-4-4-5-5-5-5-7-7-7-7-7-7-7-7-7-7-7-7-7-7-7-7-|
|-5-5-5-5-5-5-5-5-4-4-4-4-5-5-5-5-7-7-7-7-7-7-7-7-7-7-7-7-7-7-7-7-|
|-5-5-5-5-3-3-3-3-2-2-2-2-3-3-3-3-5-5-5-5-5-5-5-5-5-5-5-5-5-5-5-5-|
|-3-3-3-3---------------------------------------------------------|
Tap to rate this tab
# A B C D E F G H I J K L M N O P Q R S T U V W X Y Z