Song name
# A B C D E F G H I J K L M N O P Q R S T U V W X Y Z

Smile Empty Soul - Dont Ever Leave tab

Help us improve GuitareTab! Take a short survey!
Artist: Smile Empty Soul
Song: Don't Ever Leave
Album: Comnsciousness
Tuning: Eb Bb Gb Db Ab Db

Intro Before Verse 1
|------------------------------------|
|------------------------------------|
|---5---4---7---7----5---4----2---1--|
|--5-5-4-4-7-7-7-7--5-5-4-4--2-2-1-1-|
|-7---6---9---5----7---6----4---3----|
|------------------------------------|

Verse
|--------|
|--------|
|-1~-----|
|-1~-----|
|-3~-----|
|--------|

Pre Chorus
|-----------------------------------------------------------------|
|-----------------------------------------------------------------|
|-----------------------------------------------------------------|
|-9-9-9-9-9-9-9-9-8-8-8-8-8-8-8-8-5-5-5-5-5-5-5-5-7-7-7-7-7-7-7-7-|
|-9-9-9-9-9-9-9-9-6-6-6-6-6-6-6-6-5-5-5-5-5-5-5-5-7-7-7-7-7-7-7-7-|
|-9-9-9-9-9-9-9-9-0-0-0-0-0-0-0-0-5-5-5-5-5-5-5-5-7-7-7-7-7-7-7-7-|

|-----------------------------------------------------------------|
|-------------------------------------------------3-3-3-3-3-3-3-3-|
|-------------------------------------------------3-3-3-3-3-3-3-3-|
|-9-9-9-9-9-9-9-9-8-8-8-8-8-8-8-8-4-4-4-4-4-4-4-4-0-0-0-0-0-0-0-0-|
|-9-9-9-9-9-9-9-9-6-6-6-6-6-6-6-6-2-2-2-2-2-2-2-2-2-2-2-2-2-2-2-2-|
|-9-9-9-9-9-9-9-9-0-0-0-0-0-0-0-0-0-0-0-0-0-0-0-0-3-3-3-3-3-3-3-3-|

La, la, la, la
|----------------|
|----------------|
|----------------|
|-7-7-7-7-0-0-0--|
|-7-7-7-7-0-0-0--|
|-5-5-5-5-0-0-0--|

Chorus 1
|-----------------------------------------------------------------------------|
|-----------------------------------------------------------------------------|
|---------11-11-11-11---------14-14-14-14---------17-17-17-17-----------------|
|-0-0-0-0--x--x--x--x-0-0-0-0--x--x--x--x-0-0-0-0--x--x--x--x-9-9-9-9-7-7-7-7-|
|-0-0-0-0--9--9--9--9-0-0-0-0-12-12-12-12-0-0-0-0-15-15-15-15-9-9-9-9-7-7-7-7-|
|-0-0-0-0-------------0-0-0-0-------------0-0-0-0-------------9-9-9-9-7-7-7-7-|

|---------------------------------------------------------------------|
|---------------------------------------------------------------------|
|---------7-7-7-7---------9-9-9-9---------10-10-10-10-----------------|
|-0-0-0-0-x-x-x-x-0-0-0-0-x-x-x-x-0-0-0-0--x--x--x--x-5-5-5-5-3-3-3-3-|
|-0-0-0-0-5-5-5-5-0-0-0-0-7-7-7-7-0-0-0-0--8--8--8--8-5-5-5-5-3-3-3-3-|
|-0-0-0-0---------0-0-0-0---------0-0-0-0-------------5-5-5-5-3-3-3-3-|

|-----------------------------------------------------------------------------|
|-----------------------------------------------------------------------------|
|---------11-11-11-11---------14-14-14-14---------17-17-17-17-----------------|
|-0-0-0-0--x--x--x--x-0-0-0-0--x--x--x--x-0-0-0-0--x--x--x--x-9-9-9-9-7-7-7-7-|
|-0-0-0-0--9--9--9--9-0-0-0-0-12-12-12-12-0-0-0-0-15-15-15-15-9-9-9-9-7-7-7-7-|
|-0-0-0-0-------------0-0-0-0-------------0-0-0-0-------------9-9-9-9-7-7-7-7-|

|---------------------------------|
|---------------------------------|
|---------------------------------|
|-2-2-2-2-2-2-5-5-8-8-8-8-8-8-8-8-|
|-2-2-2-2-2-2-2-2-5-5-5-5-5-5-5-5-|
|-2-2-2-2-2-2-2-2-5-5-5-5-5-5-5-5-|

Intro Before Verse 2
|------------------|
|------------------|
|---5---4---2---1--|
|--5-5-4-4-2-2-1-1-|
|-7---6---4---3----|
|------------------|

Chorus 2
|-------------------------------------------------------------------------------|
|-------------------------------------------------------------------------------|
|-------------------------------------------------------------------------------|
|-9-9-11-11-12-12-14-14-15-15-17-17-9-9-7-7-5-5-7-7-7-7-9-9-10-10-12-12-5-5-3-3-|
|-9-9-11-11-12-12-14-14-15-15-17-17-9-9-7-7-5-5-7-7-7-7-9-9-10-10-12-12-5-5-3-3-|
|-9-9-11-11-12-12-14-14-15-15-17-17-9-9-7-7-5-5-7-7-7-7-9-9-10-10-12-12-5-5-3-3-|

|---------------------------------------------------------------------------|
|---------------------------------------------------------------------------|
|---------------------------------------------------------------------------|
|-9-9-11-11-12-12-14-14-15-15-17-17-9-9-7-7-2-2-2-2-2-2-5-5-8-8-8-8-8-8-8-8-|
|-9-9-11-11-12-12-14-14-15-15-17-17-9-9-7-7-2-2-2-2-2-2-2-2-5-5-5-5-5-5-5-5-|
|-9-9-11-11-12-12-14-14-15-15-17-17-9-9-7-7-2-2-2-2-2-2-2-2-5-5-5-5-5-5-5-5-|

I'm still working on the bridge, i'll post it when i'm done
Related for Dont Ever Leave tab