Song name
# A B C D E F G H I J K L M N O P Q R S T U V W X Y Z

Smile Empty Soul - Atoll tab

Tuning Drop D#
write at danieldaniel93@wp.pl if you correct it.

|---------12------12---------------------|
|----------12------12--------------------|
|-----------12------12------------|  x 2-|
|-------------9/10----9/7-7b-------------|
|----------------------------0-----------|
|----------------------------------------|

|--------------------------0-----------0--00-|
|-----0---------0----------0--0-------0--00--|
|-------0--0-----0---0-----0----22--2--22----|
|--22----2--44---4---55-------22-------------|
|--22--------44-------55-------00------------|
|--22--------44-------55---------------------|

|-----------------0-----------0--00--|
|-----0------------0--0-------0--00--|
|-------0--0--------0---22--2--20----|
|--22----2----55-------22------------|
|--22----------55-------00-----------|
|--22----------55--------------------|


|--------------------------0-----------0--00-|
|-----0---------0----------0--0-------0--00--|
|-------0--0-----0---0-----0----22--2--22----|
|--22----2--44---4---55-------22-------------|
|--22--------44-------55-------00------------|
|--22--------44-------55---------------------|

|-----------------0-----------0--00---|
|-----0------------0--0-------0--00---|
|-------0--0--------0---22--2--20-----|
|--22----2----55-------22-------------|
|--22----------55-------00------------|
|--22----------55---------------------|


|---------12------12---------------------|
|----------12------12--------------------|
|-----------12------12------------|  x 2-|
|-------------9/10----9/7-7b-------------|
|----------------------------0-----------|
|----------------------------------------|

|--------------------------0-----------0--00-|
|-----0---------0----------0--0-------0--00--|
|-------0--0-----0---0-----0----22--2--22----|
|--22----2--44---4---55-------22-------------|
|--22--------44-------55-------00------------|
|--22--------44-------55---------------------|

|-----------------0-----------0--00-----0---|
|-----0------------0--0-------0--00-----0---|
|-------0--0--------0---22--2--20-------0---|
|--22----2----55-------22-------------------|
|--22----------55-------00-----------0------|
|--22----------55---------------------------|


|--------------------------0-----------0--00-|
|-----0---------0----------0--0-------0--00--|
|-------0--0-----0---0-----0----22--2--22----|
|--22----2--44---4---55-------22-------------|
|--22--------44-------55-------00------------|
|--22--------44-------55---------------------|

|-----------------0-----------0--00----|
|-----0------------0--0-------0--00----|
|-------0--0--------0---22--2--20------|
|--22----2----55-------22--------------|
|--22----------55-------00-------------|
|--22----------55----------------------|


|---------12------12----------------------|
|----------12------12---------------------|
|-----------12------12-------------|  x 2-|
|-------------9/10----9/7-7b---2----------|
|----------------------------0----2-------|
|----------------------------------2------|
Tap to rate this tab
# A B C D E F G H I J K L M N O P Q R S T U V W X Y Z