Song name
# A B C D E F G H I J K L M N O P Q R S T U V W X Y Z

Smile Empty Soul - Compromise tab

intro/verse    Tuning :  Drop D#
----3-------3---------0-------0---------3-------3---------------------------|
--1---1---1---1----1---1---1----1----1---1---1---1-----1---1h3-----3p1--1---|
-----------------------------------------------------2---2-----2-------2----|
-----------------5-------5--------------------------0------------0----------|
0-------0-------------------------0--------0--------------------------------|
----------------------------------------------------------------------------|

-----------------|
-----------------|
3333-------------|     pre chorus
3333-3333--5555--|
1111-3333--5555--|
-----3333--5555--|

----------------------------------|
-----3333-------------------------|
2222-2222-------5555--------------|
2222-0000--3333-5555-5555---------|          chorus
0000-0000--3333-3333-5555---------|
-----0000--3333------5555---------|

----------------------------|
----------------------------|
-------5555--------7777-----|  bridge
-3333--5555--5555--7777-----|
-3333--3333--5555--5555-----|
-3333--------5555-----------|
Tap to rate this tab
 
# A B C D E F G H I J K L M N O P Q R S T U V W X Y Z