Song name
# A B C D E F G H I J K L M N O P Q R S T U V W X Y Z

Smile Empty Soul - O Lord tab

Intro
|--3p2---------------------------|--0---0---0---3-----------------|
|-------3------------------------|--0---0---0---3-----------------|
|----------2p0-------------------|--0---5---x---x-----------------|
|---------------0----------------|--2---5---7---5-----------------|
|--------------------------------|--2---3---7---3-----------------|
|--------------------------------|--0-------5---3-----------------|

Verse x
|--------0------------0----------|--------0--------------3--------|
|--------0------------0----------|--------0--------------3--------|
|-------------------5---5--------|--------------------------------|
|------2---2------5-------5------|------7----7--------5-----5-----|
|----2-------2--3----------------|----7--------7----5---------5---|
|--0-----------------------------|--5-------------3---------------|

This is the first tab I've done, so it may be a little off. That's the intro
and the beginning of the first verse, feel free to make any
comments/corrections. If I get any more of it I'll post it.

Tap to rate this tab
# A B C D E F G H I J K L M N O P Q R S T U V W X Y Z