Song name
# A B C D E F G H I J K L M N O P Q R S T U V W X Y Z

Smile Empty Soul - La River tab

-------------------------------------------------------------------------------
L.A. RIVER  Smile Empty Soul
-------------------------------------------------------------------------------
Tabbed by:jchall2
Email: halljacobc@gmail.com

Tuning:C#G#C#F#A#D# (Low to High)

INTRO. (Listen for Rhythm)
e|-----------------------------------------------------------------------------|
B|-----------------------------------------------------------------------------|
G|---------------------5-----------------------5-------------------------------|
D|-5---0---2---4---5---5---5---0---7---5---0---5---5---0---2----let ring-------|
A|-5---0---2---4---5---3---5---0---7---5---0---3---5---0---2-------------------|
E|-5---0---2---4---5-------5---0---7---5---0-------5---0---2-------------------|


VERSE: (Let them all ring) Play Twice
e|-----------------------------------------------------------------------------|
B|-----------------------------------------------------------------------------|
G|-----5--------5--------------Second Time, End With --------------------------|
D|-2---5----7---5----------------------------------------0---------------------|
A|-2---3----7---3----------------------------------------0---------------------|
E|-2--------7--------------------------------------------0---------------------|


CHORUS. (Listen for Rhythm)
e|--------------------------------|
B|--------------------------------|
G|--------------------------------|
D|-2-0-7-5-2-0-7-5-2-5-7-5-5-7----|
A|-2-0-7-3-2-0-7-3-2-5-7-5-3-5----|
E|-2-0-7---2-0-7---2-5-7-5--------|
ORDER:
Intro, Verse, Chorus, Intro, Verse, Chorus, Bridge (which is intro, only clean), 
Chorus until the end.
Thanks to sikofsundaysik@aol.com for the chorus and order. This is a great song. Enjoy!
Tap to rate this tab
 
# A B C D E F G H I J K L M N O P Q R S T U V W X Y Z