Song name
# A B C D E F G H I J K L M N O P Q R S T U V W X Y Z

Smile Empty Soul - Better Off Alone tab

-------------------------------------------------------------------------------
			     Better Off Alone - Smile Empty Soul
-------------------------------------------------------------------------------
Tabbed by: wallinman78
Email: wallinman789@yahoo.com

Tuning:C#, G#, C#, F#, A#, D#

e|-------10-------10---------5---------5---------------------------------------|
B|-------8---------8---------4---------4---------8888--------8888------4444----|
G|-------9---------9---------5---------5---------------------------------------|
D|-7---------7---------3---------3---------7-----------7----------3------------|
A|-7-x3------7--x3-----3--x3-----3--x3-----7--x4-------7--x4------3--x4--------|
E|-7---------7---------3---------3---------7-----------7----------3------------|

   Intro


e|---------------------------------------------------------------------------|
B|---------------------------------------------------------------------------|
G|------4444-------8888-------8888---------4444------------------------------|
D|-3---------7----------7------------3----------3------x-x--3---0-0-0-0------|
A|-3--x4-----7--x4------7--x4--------3--x4------3--x2--x-x--3---0-0-0-0------|
E|-3---------7----------7------------3----------3------x-x--3-p-0-0-0-0------|


e|---------------------------------------------------------------------------|
B|---------------------------------------------------------------------------|
G|---------------------------------------------------------------------------|
D|-7-----x------7-------x-------3------x-------5-----5-----------------------|
A|-7-x4--x--x4--7--x4---x--x4---3-x4---x--x4---3-----2-----------------------|
E|-7-----x------7-------x-------3------x-------------------------------------|

    VERSE


e|----0-------3--------0-------3-------------------|
B|----3-------6--------3-------6-------------------|
G|----2-------5--------2-------5-------------------|
D|-0-------3--------0-------3-------3--/--5---x-x--|
A|-0-------3--------0-------3-------3--/--5---x-x--|
E|-0-------3--------0-------3-------3--/--5---x-x--|  Pre Chorus


e|---------------------------------------------------------------------------|
B|---------------------------------------------------------------------------|
G|---------------------------------------------------------------------------|
D|---7----10-----2----0----10------------------------------------------------|
A|---7----10-----2----0----10------------------------------------------------|
E|---7----10-----2----0----10------------------------------------------------|
   Chorus (Here are the chords but you are going to have to figure out the strumming pattern)


e|---------------------------------------------------------------------------|
B|---------------------------------------------------------------------------|
G|---------------------------------------------------------------------------|
D|--0---2---3---5--------------3---0-----------------------------------------|
A|--0---2---3---5--------------3---0----and then back to chorus--------------|
E|--0---2---3---5--------------3---0-----------------------------------------|
    Bridge              This part is heavily distorted


e|---------------------------------------------------------------------------|
B|---------------------------------------------------------------------------|
G|---------------------------------------------------------------------------|
D|---------------------------------------------------------------------------|
A|---------------------------------------------------------------------------|
E|---------------------------------------------------------------------------|


************************************

| /   slide up
| \   slide down
| h   hammer-on
| p   pull-off
| ~   vibrato
| +   harmonic
| x   Mute note
| b   Bend
| pb  Pre-bend
| br  Bend release
| pbr Pre-bend release
| brb Bend release bend

************************************
Tap to rate this tab
# A B C D E F G H I J K L M N O P Q R S T U V W X Y Z