Song name
# A B C D E F G H I J K L M N O P Q R S T U V W X Y Z

Smile Empty Soul - Dont Ever Leave tab

Don't Ever Leave - Smile Empty Soul
Tabbed by: nfrench7fold
Tuning: Drop-D down 1/2 step [Db Ab Db Gb Bb Eb]

INTRO (clean w/ flanger)
E|--------------------------------------------------------------------------|
B|-----8-------3-------6-------5--------5-------3-------1-------0-----------|
G|---5---5---4---4---5---5---7---7----5---5---4---4---2---2---1---1---2~----|
D|-7-------5-------3-------0--------7-------5-------3-------2---------2~----|
A|--------------------------------------------------------------------0~----|
E|--------------------------------------------------------------------------|

VERSE 1 (slight distortion) [Guitar starts at 00:20]
E|-------|-------|-------|-------|-------|-------|-------|--------|
B|-------|-------|-------|-------|-------|-------|-------|--------|
G|-------|-------|-------|-------|-------|-------|-------|--------|
D|-7-----|-5-----|-3-----|-7-----|-7-----|-5-----|-3-----|-2------|
A|-7-----|-5-----|-3-----|-5-----|-7-----|-5-----|-3-----|-2------|
E|-7-----|-5-----|-3-----|-0-----|-7-----|-5-----|-3-----|-2------|
                                          Strum this line of chords

E|----------------------------------------------------------------|
B|----------------------------------------------------------------|
G|-5-5-5-5-5-5-5-5---3--------------------------------------------|
D|-5-5-5-5-5-5-5-5---3--------------------------------------------|
A|-3-3-3-3-3-3-3-3---2--------------------------------------------|
E|-0-0-0-0-0-0-0-0---0--------------------------------------------|


CHORUS 1 (heavy distortion)
E|-----------------------------------------------------------------------|
B|-----------------------------------------------------------------------|
G|-----------------------9-9-----------------------------5-5-------------|
D|-7-7-9-9-7-7-10-10-7-7-----7-7-5-5-3-3-5-5-3-3-7-7-3-3-----3-3-2-2-----|
A|-7-7-----7-7-------7-7-----7-7-5-5-3-3-----3-3-----3-3-----3-3-2-2-----|
E|-7-7-----7-7-------7-7-----7-7-5-5-3-3-----3-3-----3-3-----3-3-2-2-----|


E|-------------------------------------------------------------------------|
B|------3-3-------5-5-------10-10------------------------------------------|
G|------2-2-------4-4-------9--9-------------------------------------------|
D|-0-0--0-0--0-0--2-2--0-0--7--7---0-0-2-2-3-3-3-3-3-3-3-3-5-5-5-5-6-6-6-6-|
A|-0-0-------0-0-------0-0---------0-0-2-2-3-3-3-3-3-3-3-3-5-5-5-5-6-6-6-6-|
E|-0-0-------0-0-------0-0---------0-0-2-2-3-3-3-3-3-3-3-3-5-5-5-5-6-6-6-6-|


INTRO [BEGINNING OF VERSE 2]
E|--------------------------------------------------------------------------|
B|-----5-------3--------1--------0------------------------------------------|
G|---5---5---4---4----2---2----1---1--2~------------------------------------|
D|-7-------5--------3--------2--------2~------------------------------------|
A|------------------------------------0~------------------------------------|
E|--------------------------------------------------------------------------|


VERSE 2 [Guitar starts at 01:07]
E|-------|-------|-------|-------|-------|-------|-------|--------|
B|-------|-------|-------|-------|-------|-------|-------|--------|
G|-------|-------|-------|-------|-------|-------|-------|--------|
D|-7-----|-5-----|-3-----|-7-----|-7-----|-5-----|-3-----|-2------|
A|-7-----|-5-----|-3-----|-5-----|-7-----|-5-----|-3-----|-2------|
E|-7-----|-5-----|-3-----|-0-----|-7-----|-5-----|-3-----|-2------|

E|----------------------------------------------------------------|
B|----------------------------------------------------------------|
G|-5-5-5-5-5-5-5-5---3--------------------------------------------|
D|-5-5-5-5-5-5-5-5---3--------------------------------------------|
A|-3-3-3-3-3-3-3-3---2--------------------------------------------|
E|-0-0-0-0-0-0-0-0---0--------------------------------------------|


CHORUS 2
E|-----------------------------------------------------------------------|
B|-----------------------------------------------------------------------|
G|-----------------------9-9-----------------------------5-5-------------|
D|-7-7-9-9-7-7-10-10-7-7-----7-7-5-5-3-3-5-5-3-3-7-7-3-3-----3-3-2-2-----|
A|-7-7-----7-7-------7-7-----7-7-5-5-3-3-----3-3-----3-3-----3-3-2-2-----|
E|-7-7-----7-7-------7-7-----7-7-5-5-3-3-----3-3-----3-3-----3-3-2-2-----|

E|-------------------------------------------------------------------------|
B|------3-3-------5-5-------10-10------------------------------------------|
G|------2-2-------4-4-------9--9-------------------------------------------|
D|-0-0--0-0--0-0--2-2--0-0--7--7---0-0-2-2-3-3-3-3-3-3-3-3-5-5-5-5-6-6-6-6-|
A|-0-0-------0-0-------0-0---------0-0-2-2-3-3-3-3-3-3-3-3-5-5-5-5-6-6-6-6-|
E|-0-0-------0-0-------0-0---------0-0-2-2-3-3-3-3-3-3-3-3-5-5-5-5-6-6-6-6-|

E|-----------------------------------------------------------------------|
B|-----------------------------------------------------------------------|
G|-----------------------9-9-------------------------------5-5-----------|
D|-7-7-9-9-7-7-10-10-7-7-7-7-7-7-5-5-3-3-5-5-3-3-7-7-3-3-3-3-3-3-2-2-----|
A|-7-7-7-7-7-7-7--7--7-7-7-7-7-7-5-5-3-3-3-3-3-3-3-3-3-3-3-3-3-3-2-2-----|
E|-7-7-7-7-7-7-7--7--7-7-7-7-7-7-5-5-3-3-3-3-3-3-3-3-3-3-3-3-3-3-2-2-----|


E|--------------------------------------------------------------------------|
B|------3-3-------5-5-------10-10-------------------------------------------|
G|------2-2-------4-4-------9--9--------------------------------------------|
D|-0-0--0-0--0-0--2-2--0-0--7--7---0-0-2-2-3-3-3-3-3-3-3-3-5-5-5-5-6-6-6-6--|
A|-0-0-------0-0-------0-0---------0-0-2-2-3-3-3-3-3-3-3-3-5-5-5-5-6-6-6-6--|
E|-0-0-------0-0-------0-0---------0-0-2-2-3-3-3-3-3-3-3-3-5-5-5-5-6-6-6-6--|


BRIGDE
E|-------------------------------------------------------------------------|
B|-------------------------------------------------------------------------|
G|-------------------------------------------------------------------------|
D|7-7-7-7-7-7-7-7-9-9-9-9-9-9-9-9--10-10-10-10-10-10-10-10-5-5-5-5-6-6-6-6-|
A|7-7-7-7-7-7-7-7-9-9-9-9-9-9-9-9--10-10-10-10-10-10-10-10-5-5-5-5-6-6-6-6-|
E|7-7-7-7-7-7-7-7-9-9-9-9-9-9-9-9--10-10-10-10-10-10-10-10-5-5-5-5-6-6-6-6-|


CHORUS 3
E|-----------------------------------------------------------------------|
B|-----------------------------------------------------------------------|
G|-----------------------9-9-----------------------------5-5-------------|
D|-7-7-9-9-7-7-10-10-7-7-----7-7-5-5-3-3-5-5-3-3-7-7-3-3-----3-3-2-2-----|
A|-7-7-----7-7-------7-7-----7-7-5-5-3-3-----3-3-----3-3-----3-3-2-2-----|
E|-7-7-----7-7-------7-7-----7-7-5-5-3-3-----3-3-----3-3-----3-3-2-2-----|

E|-------------------------------------------------------------------------|
B|------3-3-------5-5-------10-10------------------------------------------|
G|------2-2-------4-4-------9--9-------------------------------------------|
D|-0-0--0-0--0-0--2-2--0-0--7--7---0-0-2-2-3-3-3-3-3-3-3-3-5-5-5-5-6-6-6-6-|
A|-0-0-------0-0-------0-0---------0-0-2-2-3-3-3-3-3-3-3-3-5-5-5-5-6-6-6-6-|
E|-0-0-------0-0-------0-0---------0-0-2-2-3-3-3-3-3-3-3-3-5-5-5-5-6-6-6-6-|

E|----------------------------------------------------------------------|
B|----------------------------------------------------------------------|
G|-----------------------9-9-------------------------------5-5----------|
D|-7-7-9-9-7-7-10-10-7-7-7-7-7-7-5-5-3-3-5-5-3-3-7-7-3-3-3-3-3-3-2-2----|
A|-7-7-7-7-7-7-7--7--7-7-7-7-7-7-5-5-3-3-3-3-3-3-3-3-3-3-3-3-3-3-2-2----|
E|-7-7-7-7-7-7-7--7--7-7-7-7-7-7-5-5-3-3-3-3-3-3-3-3-3-3-3-3-3-3-2-2----|


E|-------------------------------------------------------------------------|
B|-------------------------------------------------------------------------|
G|-------------------------------------------------------------------------|
D|-0-0-------0-0-------0-0---------0-0-2-2-3-3-3-3-3-3-3-3-5-5-5-5-6-6-6-6-|
A|-0-0-------0-0-------0-0---------0-0-2-2-3-3-3-3-3-3-3-3-5-5-5-5-6-6-6-6-|
E|-0-0-------0-0-------0-0---------0-0-2-2-3-3-3-3-3-3-3-3-5-5-5-5-6-6-6-6-|

E|---------------------------------------|
B|---------------------------------------|
G|---------------------------------------|
D|-7-------------------------------------|
A|-7-------------------------------------|
E|-7-------------------------------------|
   Hold out last note


END
Comment/Correct Please
Tap to rate this tab
# A B C D E F G H I J K L M N O P Q R S T U V W X Y Z