Song name
# A B C D E F G H I J K L M N O P Q R S T U V W X Y Z

Smile Empty Soul - Compromise tab

-------------------------------------------------------------------------------
			     COMPROMISE - SMILE EMPTY SOUL
-------------------------------------------------------------------------------
Tabbed by: wallinman78
Email: wallinman789@yahooo.com

Tuning:

e|---------------------------------------------------------------------------|
B|---------------------------------------------------------------------------|
G|--------12-----------12-------------9--------------9--------------12-------|
D|----10-----10-----10----10------10-----10------10-----10------10------10---|
A|--0------------0-------------8--------------8--------------0---------------|
E|---------------------------------------------------------------------------|

e|---------------------------------------------------------------------------|
B|---------------------------------------------------------------------------|
G|-------12---------------5-------5--7------7-7--5---------------------------|
D|---10------10-------7-------7----------------------5--7--------------------|
A|-0--------------5---------------------5------------------------------------|
E|---------------------------------------------------------------------------|






e|---------------------------------------------------------------------------|
B|---------------------------------------------------------------------------|
G|--10-----5------5----------------------9-----5-----5-----7-----------------|
D|--8------3------5----------------------7-----3-----5-----5-----------------|
A|--8------3------3----------------------7-----3-----3-----5-----------------|
E|--8------3-----------------------------7-----3-----------5-----------------|     
   Pre-Chorus                             Chorus
       






e|---------------------------------------------------------------------------|
B|-------------------3-------------------------------------------------------|
G|---5----5----7-----2-----4-------------------------------------------------|
D|---3----5----5-----0-----2-------------------------------------------------|
A|---3----3----5-----0-----2-------------------------------------------------|
E|---3---------5-----0-----2-------------------------------------------------|
     Breakdown




************************************

| /   slide up
| \   slide down
| h   hammer-on
| p   pull-off
| ~   vibrato
| +   harmonic
| x   Mute note
| b   Bend
| pb  Pre-bend
| br  Bend release
| pbr Pre-bend release
| brb Bend release bend

************************************
Tap to rate this tab
# A B C D E F G H I J K L M N O P Q R S T U V W X Y Z