Smile Empty Soul - Ban Nuys tab

|----------------------|
|---------------7*-----|
|-------5*5*5*5*--7*---|
|-2~-------------------|
|-2~-------------------|
|-2~-------------------|

|------------------------|
|------------------------|
|------------------------|
|--2-2-0-2-2-0-2-2-0-2-2-|
|--2-2-0-2-2-0-2-2-0-2-2-|
|--2-2-0-2-2-0-2-2-0-2-2-| do that so many times then do this (the 3rd time around you 
just the top d string)

|-------|
|-------|
|-------|
|--0~---|
|--0~---|
|--3~---|

|--------------|
|--------------|
|---7-7-7-4----|
|---4-4-4-4----|
|--------------|
|--------------|

x4
Tap to rate this tab
 
# A B C D E F G H I J K L M N O P Q R S T U V W X Y Z