Song name
# A B C D E F G H I J K L M N O P Q R S T U V W X Y Z

Smile Empty Soul - O Lord tab

-------------------------------------------------------------------------------
			     smile empty soul o'lord
-------------------------------------------------------------------------------
Tabbed by:steve
Email:
this is the first time i tried a song bye ear looking for some help in geting
this song right cause its such a good song
Tuning:down 1/2 step
intro
e|----3 2---------- -----------3-------------------------------------------|
B|--------3------ -1------1----3-------------------------------------------|
G|---------2----- -0------2------------------------------------------------|
D|----------0--2---2------2------------------------------------------------|
A|----------- -2---3--3-2------2-------------------------------------------|
E|------------ 0---------------3-------------------------------------------|
verse 2x
e|32--------0--------0------0-------3---------2--------3--------2----------|
B|--3---- --0--------1------1-------3--------4-4------5-5------3-3-3-------|
G|---2-- --0-0------0-0----2-2-----0-0------4---4----5---5----2---2--------|
D|----0- -2---2----2------2---2---0---0----2-----2--3-----3--0-------------|
A|--- - -2-----2--3----32------0-2-----2--2-------23--------0--------------|
E|--- -0 -----------------------3------------------------------------------|
chorus 4x              then this 1x  then intro chords 1x
e|-----------------3--------------2------3---------------------------------|
B|---------1---1---3--------------4------5---------------------------------|
G|---------0---2------------------4------5---------------------------------|
D|-----2---2---2------------------2------3---------------------------------|
A|-----2---3-------2--------------2------3---------------------------------|
E|-----0-----------3-------------------------------------------------------|
verse 2x
e|32--------0--------0------0-------3---------2--------3--------2----------|
B|--3---- --0--------1------1-------3--------4-4------5-5------3-3-3-------|
G|---2-- --0-0------0-0----2-2-----0-0------4---4----5---5----2---2--------|
D|----0- -2---2----2------2---2---0---0----2-----2--3-----3--0-------------|
A|--- - -2-----2--3----32------0-2-----2--2-------23--------0--------------|
E|--- -0 -----------------------3------------------------------------------|
chorus 4x              then this 3x
e|-----------------3--------------2------3---------------------------------|
B|---------1---1---3--------------4------5---------------------------------|
G|---------0---2------------------4------5---------------------------------|
D|-----2---2---2------------------2------3---------------------------------|
A|-----2---3-------2--------------2------3---------------------------------|
E|-----0-----------3-------------------------------------------------------|
bridge
e|----------------2--------------------------------------------------------|
B|--------1---1---2--------------------------------------------------------|
G|--------0---2------------------------------------------------------------|
D|----2---2---2------------------------------------------------------------|
A|----2---3-------2--------------------------------------------------------|
E|----0-----------3--------------------------------------------------------|


e|-----0--------0------0-------3---------2--------3--------2---------------|
B|-- --0--------1------1-------3--------4-4------5-5------3-3-3------------|
G|----0-0------0-0----2-2-----0-0------4---4----5---5----2---2-------------|
D|---2---2----2------2---2---0---0----2-----2--3-----3--0------------------|
A --2-----2--3----32------0-2-----2--2-------23--------0-------------------|
E|-0 ----------------------3-----------------------------------------------|
chorus 4x              then this 3x
e|-----------------3--------------2------3----------------------------------|
B|---------1---1---3--------------4------5----------------------------------|
G|---------0---2------------------4------5----------------------------------|
D|-----2---2---2------------------2------3----------------------------------|
A|-----2---3-------2--------------2------3----------------------------------|
E|-----0-----------3--------------------------------------------------------|


************************************
Tap to rate this tab
 
# A B C D E F G H I J K L M N O P Q R S T U V W X Y Z