Song name
# A B C D E F G H I J K L M N O P Q R S T U V W X Y Z

Smile Empty Soul - Alone tab

----------------------------------------------------------------------------
			     Alone - Smile Empty Soul
----------------------------------------------------------------------------
Tabbed by:wallinman78
Email:wallinman789@yahoo.com

Tuning:

e|---------------------------------------------------------------------------|
B|---------------------------------------------------------------------------|
G|---------------------------------------------------------------------------|
D|---5--5--5------4--4--4-----4--4--5--5-p-4---2--4--5-----------------------|
A|---5--5--5------0--0--0-----2--2--2--2---2---2--4--5-----------------------|
E|---5--5--5------0--0--0-----2--2--2--2---2---2--4--5-----------------------|       Verse

e|---------------------------------------------------------------------------|
B|---------------------------------------------------------------------------|
G|--7----9----4--------------------------------------------------------------|
D|--5----7----2--------------------------------------------------------------|
A|--5----7----2--------------------------------------------------------------|
E|--5----7----2--------------------------------------------------------------|     Chorus

e|---------------------------|
B|---------------------------|
G|---------------------------|
D|--2--0--4--5-p-4--2--4--5--|
A|--2--0--2--2---2--2--4--5--|
E|--2--0--2--2---2--2--4--5--|      Post Chorus


************************************

| /   slide up
| \   slide down
| h   hammer-on
| p   pull-off
| ~   vibrato
| +   harmonic
| x   Mute note
| b   Bend
| pb  Pre-bend
| br  Bend release
| pbr Pre-bend release
| brb Bend release bend

************************************
Tap to rate this tab
 
# A B C D E F G H I J K L M N O P Q R S T U V W X Y Z