Smile Empty Soul - Dont Ever Leave tab

-------------------------------------------------------------------------------

         don't ever leave       smile empty soul

-------------------------------------------------------------------------------
Tabbed by:drop d
Email:
this is 100% right all the others are wrong
Tuning:
intro
e|---------------------------------------------------------------------------|
B|----8----3----6----5-----5----3----1----0----------------------------------|
G|---5-5--4-4--5-5--7-7---5-5--4-4--2-2--1-1--2------------------------------|
D|--7----5----3----0-----7----5----3----2-----2------------------------------|
A|--------------------------------------------0------------------------------|
E|---------------------------------------------------------------------------|
verse 1st part no guitar this is second part
e|---------------------------------------------------------------------------|
B|---------------------------------------------------------------------------|
G|--2---------------2-------------5------------------------------------------|
D|--2---5---3--0----2---5--3--2---5---0--------------------------------------|
A|--0---5---3--0----0---5--3--2---3---0--------------------------------------|
E|------5---3--0--------5--3--2-------0--------------------------------------|
chorus
e|---------------------------------------------------------------------------|
B|---------------------------------------------------------------------------|
G|--------------9-9------------- 55------------------------------------------|
D|-77997710-1077-- 77553355337733--33220077009900141400223355337755559999----|
A|-77--77-----77---775533--33--33--33220055007700121200223333333355557777----|
E|-77--77-----77---775533--33--33--332200--00--00----00223333333355556666----|

e|---------------------------------------------------------------------------|
B|---5----3----1----0--------------------------------------------------------|
G|--5-5--4-4--2-2--1-1--2----------------------------------------------------|
D|-7----5----3----2-----2----------------------------------------------------|
A|----------------------0----------------------------------------------------|
E|---------------------------------------------------------------------------|
verse 1st part no guitar this is second part
e|---------------------------------------------------------------------------|
B|---------------------------------------------------------------------------|
G|--2---------------2-------------5------------------------------------------|
D|--2---5---3--0----2---5--3--2---5---0--------------------------------------|
A|--0---5---3--0----0---5--3--2---3---0--------------------------------------|
E|------5---3--0--------5--3--2-------0--------------------------------------|
chorus
e|---------------------------------------------------------------------------|
B|---------------------------------------------------------------------------|
G|--------------9-9------------- 55------------------------------------------|
D|-77997710-1077-- 77553355337733--33220077009900141400223355337755559999----|
A|-77--77-----77---775533--33--33--33220055007700121200223333333355557777----|
E|-77--77-----77---775533--33--33--332200--00--00----00223333333355556666----|

2nd part
e|---------------------------------------------------------------------------|
B|---------------------------------------------------------------------------|
G|-----------55----------------99--------------------------------------------|
D|-3355337733--3300779977101077--771010 0077009900141400223355337755559999---|
A|-33--33--33--330077--77----77--771010 0055007700121200223333333355557777---|
E|-33--33--33--330077--77----77--771010 00--00--00----00223333333355556666---|

bridge listen for rythem for exect number of for each chord
e|---------------------------------------------------------------------------|
B|---------------------------------------------------------------------------|
G|---------------------------------------------------------------------------|
D|--77771010101099995555555599997777101010104444555555559--------------------|
A|--77777-7-7-7-777733335555777777777-7-7-7-2222333355557--------------------|
E|--77777-7-7-7-777733335555666677777-7-7-7-2222333355556--------------------|
chorus
e|---------------------------------------------------------------------------|
B|---------------------------------------------------------------------------|
G|--------------9-9------------- 55------------------------------------------|
D|-77997710-1077-- 77553355337733--33220077009900141400223355337755559999----|
A|-77--77-----77---775533--33--33--33220055007700121200223333333355557777----|
E|-77--77-----77---775533--33--33--332200--00--00----00223333333355556666----|

2nd part
e|---------------------------------------------------------------------------|
B|---------------------------------------------------------------------------|
G|-----------55----------------99--------------------------------------------|
D|-3355337733--3300779977101077--771010 00--00--00--00223355337755559999-----|
A|-33--33--33--330077--77----77--771010 00--00--00--00223333333355557777-----|
E|-33--33--33--330077--77----77--771010 00--00--00--00223333333355556666-----|
Tap to rate this tab
 
# A B C D E F G H I J K L M N O P Q R S T U V W X Y Z