Smile Empty Soul - Loser tab

Ok if anyone has any questions contact me at my email gears_of_war2_vs_halo3@yahoo.com
this is my version of the song it's tuning is DADGBE half a step down.
this is for people who dont wanna tune their guitars lower than half a step down. cause 
personally its too much of a pain to go any lower than that. (it might be because im 
just lazy)

anywho heres the song.

-------------------------------------------------------------|-----------|
-------------------------------------------------------------|-----------|
-5-------5-----4-------4-----4-------------------------------|-----------|
-7-7-7-7-7-7-7-5-5-5-5-5-5-5-5---------4-------------4-----4-|-4h5p4-----|
-------------------------------5-5-5-5-5-5-5-5-5-5-5-5-5-5-5-|-------5---|
-------------------------------------------------------------|-----------|
                                                              ^play this second time through

V this part times 2 V
----------------------------------------------------------------------------|
----------------------------------------------------------------------------|
----------------------------------------------------------------------------|
-7-7-7-7-7-7-7-7-7-7-7-5-5-5-5-5-5-5-5-5-5-0-0-0-0-0-0-0-0-0-0--------------|
-7-7-7-7-7-7-7-7-7-7-7-5-5-5-5-5-5-5-5-5-5-0-0-0-0-0-0-0-0-0-0--------------|
-7-7-7-7-7-7-7-7-7-7-7-5-5-5-5-5-5-5-5-5-5-0-0-0-0-0-0-0-0-0-0--------------|
this part you can figure out the pattern on your own cuz i just play it as i hear it

then this V
--------------------------------------------------|
--------------------------------------------------|
--------------------------------------------------|
-4h5p4--------------------------------------------|
-------5------------------------------------------|
--------------------------------------------------|

times 2 V
------------------------------------------------------------------------|
------------------------------------------------------------------------|
-5-5-5-5-5-5-5-5-4-4-4-4-4-4-4-4----------------------------------------|
-7-7-7-7-7-7-7-7-5-5-5-5-5-5-5-5-4-4-4-4-4-4-4-4-4-4-4-4-4--------------|
---------------------------------5-5-5-5-5-5-5-5-5-5-5-5-5--------------|
------------------------------------------------------------------------|
again figure the patterns out on your own


"give me something good...."
all my life i tried....
to be happy but....
-------------------------------------------------------------------------|
-------------------------------------------------------------------------|
-------------------------------------------------------------------------|
-3-3-3-3-3-3-3-5-5-5-5-5-5-5-7-7-7-7-7-7-7-0-0-0-0-0-0-0-----------------|
-3-3-3-3-3-3-3-5-5-5-5-5-5-5-7-7-7-7-7-7-7-0-0-0-0-0-0-0-----------------|
-3-3-3-3-3-3-3-5-5-5-5-5-5-5-7-7-7-7-7-7-7-0-0-0-0-0-0-0-----------------|

im gonna die a loser
------------------------------------------------------------|
------------------------------------------------------------|
------------------------------------------------------------|
-3-3-3-3-3-3-3-5-5-5-5-5-5-5-0------------------------------|
-3-3-3-3-3-3-3-5-5-5-5-5-5-5-0------------------------------|
-3-3-3-3-3-3-3-5-5-5-5-5-5-5-0------------------------------|

the solo played behind the pre verse
-------------------------------------------------------------------|
-13-12-10----10-12-10----------------------------------------------|
----------12----------12-11-11-11-11-9-11-9-11/12\11-9---9---------|
-------------------------------------------------------12--12/14---|
-------------------------------------------------------------------|
-------------------------------------------------------------------|

-------------------------------------------------------|
-13-12-10----10-12-10----------------------------------|
----------12----------12-11-11-11-11-9-11-9-11/12\11-9-|
-------------------------------------------------------|
-------------------------------------------------------|
-------------------------------------------------------|


----------------------------------------------------------------------------|
----------------------------------------------------------------------------|
----------------------------------------------------------------------------|
-7-7-7-7-7-7-7-7-7-7-7-5-5-5-5-5-5-5-5-5-5-0-0-0-0-0-0-0-0-0-0--------------|
-7-7-7-7-7-7-7-7-7-7-7-5-5-5-5-5-5-5-5-5-5-0-0-0-0-0-0-0-0-0-0--------------|
-7-7-7-7-7-7-7-7-7-7-7-5-5-5-5-5-5-5-5-5-5-0-0-0-0-0-0-0-0-0-0--------------|


----------------------------------------------------------------------------|
----------------------------------------------------------------------------|
----------------------------------------------------------------------------|
-7-7-7-7-7-7-7-7-7-7-7-5-5-5-5-5-5-5-5-5-5-0-0-0-0-0-0-0-0-0-0--------------|
-7-7-7-7-7-7-7-7-7-7-7-5-5-5-5-5-5-5-5-5-5-0-0-0-0-0-0-0-0-0-0--------------|
-7-7-7-7-7-7-7-7-7-7-7-5-5-5-5-5-5-5-5-5-5-0-0-0-0-0-0-0-0-0-0--------------|


--------------------------------------------------|
--------------------------------------------------|
--------------------------------------------------|
-4h5p4--------------------------------------------|
-------5------------------------------------------|
--------------------------------------------------|


times 2 V
------------------------------------------------------------------------|
------------------------------------------------------------------------|
-5-5-5-5-5-5-5-5-4-4-4-4-4-4-4-4----------------------------------------|
-7-7-7-7-7-7-7-7-5-5-5-5-5-5-5-5-4-4-4-4-4-4-4-4-4-4-4-4-4--------------|
---------------------------------5-5-5-5-5-5-5-5-5-5-5-5-5--------------|
------------------------------------------------------------------------|

this times 3 V (Distortion)
-------------------------------------------------------------------------|
-------------------------------------------------------------------------|
-------------------------------------------------------------------------|
-3-3-3-3-3-3-3-5-5-5-5-5-5-5-7-7-7-7-7-7-7-0-0-0-0-0-0-0-----------------|
-3-3-3-3-3-3-3-5-5-5-5-5-5-5-7-7-7-7-7-7-7-0-0-0-0-0-0-0-----------------|
-3-3-3-3-3-3-3-5-5-5-5-5-5-5-7-7-7-7-7-7-7-0-0-0-0-0-0-0-----------------|

times 2
-------------------------------------------------------------------|
-------------------------------------------------------------------|
-------------------------------------------------------------------|
-3-3-3-3-3-3-3-5-5-5-5-5-5-5-0-0-0-0-0-0-0-0-----------------------|
-3-3-3-3-3-3-3-5-5-5-5-5-5-5-0-0-0-0-0-0-0-0-----------------------|
-3-3-3-3-3-3-3-5-5-5-5-5-5-5-0-0-0-0-0-0-0-0-----------------------|


-------------------------------------------------------------------|
-13-12-10----10-12-10----------------------------------------------|
----------12----------12-11-11-11-11-9-11-9-11/12\11-9---9---------|
-------------------------------------------------------12--12/14---|
-------------------------------------------------------------------|
-------------------------------------------------------------------|


-------------------------------------------------------------------|
-13-12-10----10-12-10----------------------------------------------|
----------12----------12-11-11-11-11-9-11-9-11/12\11-9---9---------|
-------------------------------------------------------12--12/14---|
-------------------------------------------------------------------|
-------------------------------------------------------------------|

these notes are picked like 5 times each or somethings like i said before ill say it 
again figure out the pattern on your own.
-------------------------------------------------------------------------|
-------------------------------------------------------------------------|
-------------------------------------------------------------------------|
-14-17-16-14-17-18(slowly bend upwards while picking still)--------------|
-------------------------------------------------------------------------|
-------------------------------------------------------------------------|

(clean)
----------------------------------------------------------------------------|
----------------------------------------------------------------------------|
----------------------------------------------------------------------------|
-3-3-3-3-3-3-3-5-5-5-5-5-5-5-7-7-7-7-7-7-7-10-10-10-10-10-10-10-------------|
-3-3-3-3-3-3-3-5-5-5-5-5-5-5-7-7-7-7-7-7-7-10-10-10-10-10-10-10-------------|
-3-3-3-3-3-3-3-5-5-5-5-5-5-5-7-7-7-7-7-7-7-10-10-10-10-10-10-10-------------|


--------------------------------------------------------------|
--------------------------------------------------------------|
--------------------------------------------------------------|
-3-3-3-3-3-3-3-5-5-5-5-5-5-5-7-7-7-7-7-7-7-0------------------|
-3-3-3-3-3-3-3-5-5-5-5-5-5-5-7-7-7-7-7-7-7-0------------------|
-3-3-3-3-3-3-3-5-5-5-5-5-5-5-7-7-7-7-7-7-7-0------------------|

distortion times 3
--------------------------------------------------------------------------|
--------------------------------------------------------------------------|
--------------------------------------------------------------------------|
-3-3-3-3-3-3-3-5-5-5-5-5-5-5-7-7-7-7-7-7-7-0-0-0-0-0-0-0------------------|
-3-3-3-3-3-3-3-5-5-5-5-5-5-5-7-7-7-7-7-7-7-0-0-0-0-0-0-0------------------|
-3-3-3-3-3-3-3-5-5-5-5-5-5-5-7-7-7-7-7-7-7-0-0-0-0-0-0-0------------------|


---------------------------------------------|
---------------------------------------------|
---------------------------------------------|
-3-3-3-3-3-3-3-5-5-5-5-5-5-5-0---------------|
-3-3-3-3-3-3-3-5-5-5-5-5-5-5-0---------------|
-3-3-3-3-3-3-3-5-5-5-5-5-5-5-0---------------|

and thats all this is my version. sounds better to me i think.
Tap to rate this tab
 
# A B C D E F G H I J K L M N O P Q R S T U V W X Y Z