Smile Empty Soul - Not Alright tab

Smile Empty Soul - Not Alright

Tabbed by pusse84

Tuning: Drop C# (i.e. drop D but half step down)
For exact strumming, listen the track


Intro/Verse:
|-----------------------------------------------------------------|
|-----------------------------------------------------------------|
|---------0---------------0---------------0---------------0-------|
|---1---1---1---1---1---1---1---0-----3-----3---------3-----3---3-|
|-3---3-------3-------3-------3-----1---1-----1-----1---1-----1---|
|---------------------------------1-------------1-----------------|

|-----1-11-11111111/3---3--33---3333---3-|
|-1---1-11-11111111/3---3h444---3333h4-4-|
|-3---3-33-33333333/5---5--55---5555---5-|
|-3---3-33-33333333/5---5--55---5555---5-|
|-1---1-11-11111111/3---3--33---3333---3-|
|----------------------------------------|


Verse:
|------------------------------------------1-11-11111111/3---3--33---3333---3---|
|------------------------------------x-1---1-11-11111111/3---3h444---3333h4-4---|
|------------------------------------x-3---3-33-33333333/5---5--55---5555---5-0-|
|-10~--10-101010-0-1~--1-11-11111111-x-3---3-33-33333333/5---5--55---5555---5-0-|
|-10~--10-101010-0-1~--1-11-11111111-x-1---1-11-11111111/3---3--33---3333---3-0-| 2x
|-10~--10-101010-0-1~--1-11-11111111--------------------------------------------|


Bridge:
|-----------------------------------|
|-----------------------------------|
|-----------------------------------|
|-6---8---3-------6---8---10--------|
|-6---8---3-------6---8---10--------|
|-6---8---3-------6---8---10--------|


Chorus:
|----------------------------------------------------------------------|
|----------------------------------------------------------------------|
|----------------------------------------------------------------------|
|-1-1-1-1-1-------10-10-10-10-10-------5-5-5-5-5-------5h8-8-8-8-0-0-0-|
|-1-1-1-1-1-------10-10-10-10-10-------5-5-5-5-5-------5h8-8-8-8-0-0-0-| 2x
|-1-1-1-1-1-------10-10-10-10-10-------5-5-5-5-5-------5h8-8-8-8-0-0-0-|

|----------------------------------------------------------------------|
|----------------------------------------------------------------------|
|----------------------------------------------------------------------|
|-1-1-1-1-1~------10-10-10-10-10~------5-5-5-5-5~------5h8-8-8-8-0-0-0-|
|-1-1-1-1-1~------10-10-10-10-10~------5-5-5-5-5~------5h8-8-8-8-0-0-0-| 2x
|-1-1-1-1-1~------10-10-10-10-10~------5-5-5-5-5~------5h8-8-8-8-0-0-0-|


After 1st chorus:
|-------------------------------|
|-------------------------------|
|---------0---0-----------0-0-0-|
|---1---1-1---1-----1---1-1-1-1-|
|-3---3---------3-----3---3-3-3-| 2x
|-------------------------------|


Part-C:
|-------------------------------------|
|-------------------------------------|
|-------------------------------------|
|-------------------------------------|
|-------------------------------------|
|-1---1-1-1/5-5-5-5-0---0-0-0h3-3-3-3-|

Guitar 1
|-----------------------------------------------------------|
|-----------------------------------------------------------|
|-----------------------------------------------------------|
|-6-------1---5---6-------1---5---6-------1---5---6-------1-|
|-6-------1---5---6-------1---5---6-------1---5---6-------1-|
|-6-------1---5---6-------1---5---6-------1---5---6-------1-|

Guitar 2
|-------------------------------------------------|    |----------------------------|
|-------------------------------------------------|    |----------------------------|
|-13----13----13----13----12----12----12----12----|    |-13----13----13----13----12~|
|----13----13----13----13----13----13----13----13-|    |----13----13----13----13----|
|-------------------------------------------------| 3x |----------------------------|
|-------------------------------------------------|    |----------------------------|
Tap to rate this tab
 
# A B C D E F G H I J K L M N O P Q R S T U V W X Y Z