Song name
# A B C D E F G H I J K L M N O P Q R S T U V W X Y Z

Smile Empty Soul - Refill Me tab

Smile Empty Soul - Refill Me

Tuning: Drop C#
Tabbed by pusse84


Intro:
|-----------------------------------|
|-----------------------------------|
|-----7-77----7-77----7-77----------|
|-00-07-7700-07-7700-07-777h8888555-|
|-00-05-5500-05-5500-05-557h8888555-| x2
|-00-0----00-0----00-0----7h8888555-|

 b = bend quarter-step                    lead over the last x2
|-----------------------------------|    |----------------|
|-----------------------------------|    |----------------|
|-----7b------7b------7b------------|    |----------------|
|-00-07b--00-07b--00-07b--7h8888555-|    |----------------|
|-00-05b--00-05b--00-05b--7h8888555-| x4 |-7----7-7h8p7-5-|
|-00-0----00-0----00-0----7h8888555-|    |----------------|


Verse 1:
|----------------------------------|
|----------------------------------|
|----------------------------------|
|-0---5---8-------3---10---8-------|
|-0---5---8-------3---10---8-------| x2
|-0---5---8-------3---10---8-------|

|-----------------------------------|
|-----------------------------------|
|-----7b------7b------7b------------|
|-00-07b--00-07b--00-07b--7h8888555-|
|-00-05b--00-05b--00-05b--7h8888555-| x2
|-00-0----00-0----00-0----7h8888555-|


Chorus:
|----------------------------------|
|----------------------------------|
|----------------------------------|
|-8-------0-------10-------5---3---|
|-8-------0-------10-------5---3---| x2
|-8-------0-------10-------5---3---|


Intro riff (with bend) x2, second time with the lead over

Verse 2 (same as Verse 1)

Chorus


Bridge:
|---------------------------------------------------------------------------------|
|---------------------------------------------------------------------------------|
|---------------------------------------------------------------------------------|
|-10-10-10----10-1010/12-12-12----12-1212/14-14-15----15-1515\12-12-14----14-1414-|
|-8--8--8-----8--8-8-/10-10-10----10-1010/12-12-12----12-1212\10-10-10----10-1010-| x4
|-8--8--8-----8--8-8-/10-10-10----10-1010/12-12-12----12-1212\10-10-10----10-1010-|


Intro riff (with bend) x2

Chorus

Intro riff (with bend) x4 (last two with lead over)
Tap to rate this tab
 
# A B C D E F G H I J K L M N O P Q R S T U V W X Y Z