Song name
# A B C D E F G H I J K L M N O P Q R S T U V W X Y Z

Smile Empty Soul - Disease tab

-----------------------------------------------------------------------------
                             DISEASE -Smile Empty Soul
-----------------------------------------------------------------------------
Tabbed by:ilmilan03
Email:ilmilan03@gmail.com

Verse, pre-chorus and chorus were seen in a live video, bridge writen by ear.

Tuning:Drop D + Half Step Down

Verse:
eb|-------------------------------------------------------------------------|
Bb|-------------------------------------------------------------------------|
Gb|-9999999/12121212121212--111111111111119-9999999-------------------------|
Db|-9999999/12121212121212--9-9-9-9-9-9-9-7-7777777-------------------------|
Ab|-7777777/10101010101010--9-9-9-9-9-9-9-7-7777777-------------------------|
Db|-------------------------9-9-9-9-9-9-9-7-7777777-------------------------|

eb|-------------------------------------------------------------------------|
Bb|-------------------------------------------------------------------------|
Gb|-12121212121212\9999999--1111111111111112-12121212121212-----------------|
Db|-12121212121212\9999999--9-9-9-9-9-9-9-0--0-0-0-0-0-0-0------------------|
Ab|-10101010101010\7777777--9-9-9-9-9-9-9-0--0-0-0-0-0-0-0------------------|
Db|-------------------------9-9-9-9-9-9-9-0--0-0-0-0-0-0-0------------------|

Pre-Chorus
eb|-------------------------------------------------------------------------|
Bb|-------------------------------------------------------------------------|
Gb|-4455-5555-55--------------2255-5555-55----------------------------------|
Db|-5577-7777-775-555-4444-44-3355-5555-554-444-44-540----------------------|
Ab|-5577-7777-772-222-2222-22-3300-0000-000-000-00-000----------------------|
Db|-5577-7777-772-222-2222-22---00-0000-000-000-00-000----------------------|

Chorus
eb|-------------------------------------------------------------------------|
Bb|-------------------------------------------------------------------------|
Gb|---4-4--4-444----7-7--7-777--9-9999-999999-12121212-2x2x2/12-------------|
Db|-2-0202-02022--5-0505-05055--7-7777-777777-10101010-0x0x0/10-------------|
Ab|-2-0202-02022--5-0505-05055--7-7777-777777-10101010-0x0x0/10-------------|
Db|-2-0202-02022--5-0505-05055--7-7777-777777-10101010-0x0x0/10-------------|

Bridge:
eb|-------------------------------------------------------------------------|
Bb|-------------------------------------------------------------------------|
Gb|-------------------------------------------------------------------------|
Db|----4-4--425424----4-4--4245--2-2424-2425424-2-2424-24245----------------|
Ab|------------------------------2-2222-2222222-2-2222-22222----------------|
Db|-2-2-2--2-------2-2-2--2------2-2222-2222222-2-2222-22222----------------|

************************************

| /   slide up
| \   slide down
| x   Mute note

************************************
Tap to rate this tab
# A B C D E F G H I J K L M N O P Q R S T U V W X Y Z