Song name
# A B C D E F G H I J K L M N O P Q R S T U V W X Y Z

Smile Empty Soul - Refill Me tab

ok i was looking at the tabs on here and none of them seemed very helpful except a few 
parts..so i have watched sean play it like and this is how he plays it.
                                 (Riff A/Prechorus)         )
Intro(Clean)                  x2)(Distortion)             x2)
               x3              x1          x3              x1
D#-------0--0-0-|---------------|-----------|---------------|---------|
A#-------3--3-3-|---------------|-------3B--|---------------|---------|
F#-------2--2-2-|---------------|-------2B--|---------------|---------|
C#-0-0-0--------|-7/8-8-8-8-5-5-|-0-0-0-----|-7/8-8-8-8-5-5-|---------|
G#-0-0-0--------|-7/8-8-8-8-5-5-|-0-0-0-----|-7/8-8-8-8-5-5-|---------|
C#-0-0-0--------|-7/8-8-8-8-5-5-|-0-0-0-----|-7/8-8-8-8-5-5-|---------|



riff b                                                       x2 )
-----------------------------------------------------------------|
-----------------------------------------------------------------|
-9-9--9-9B-------7--7-7-------7--7-7-------7--7-7----------------|
-x-x--x-x--0-0-0-7--7-7-0-0-0-7--7-7-0-0-0-7--7-7-7/8-8-8-8-5-5--|
-7-7--7-7B-0-0-0-5--5-5-0-0-0-5--5-5-0-0-0-5--5-5-7/8-8-8-8-5-5--|
-----------0-0-0--------0-0-0--------0-0-0--------7/8-8-8-8-5-5--|


(strumming isnt that hard to figure out kinda difficult at first but easy when you get 
used to it)
verse 1 & 2             (Riff A)x2 (theres a pause in the pre chorus at the end)
-0---------------------|---------|---------------------|
-3---------------------|---------|---------------------|
-2--7---10--5--5--3----|---------|---------------------|
-0--5---8---3--5--3----|---------|---------------------|
-0--5---8---3--3--1----|---------|---------------------|
----5---8---3----------|---------|---------------------|


(these are'nt the exact notes i just gave an example on how you should play them and how 
many times to hit them. again not that hard to figure out)
Chorus                                              x2)
------------------------------------------------------|
------------------------------------------------------|
--------------------------5-5---5-5-5-----------------|
-8-8-0-8-8-8-8-0-0-0-0-0--5-5-0-5-5-5-5-5-5-3-3-3-----|
-8-8-0-8-8-8-8-0-0-0-0-0--3-3-0-3-3-3-5-5-5-3-3-3-----|
-8-8-0-8-8-8-8-0-0-0-0-0------0-------5-5-5-3-3-3-----|

play verse 2 again same number of times as first then
riff a then chorus (this time theres no pause in the pre chorus)



breakdown i guess lol                                          x3)
------------------------------------------------------------------|
------------------------------------------------------------------|
------------------------------------------------------------------|
-10-10-10--10---12-12-12--12---14-14-15--15--12-12-14--14---------|
-8--8--8---8----10-10-10--10---12-12-12--12--10-10-10--10---------|
-8--8--8---8----10-10-10--10---12-12-12--12--10-10-10--10---------|

riff a x2 then chorus (theres a short pause in pre chorus this time) x2
then, riff a x2 thne riff b x 2

then your done.


im not sure if you can post videos from youtube in this text so look up refill me smile 
empty soul live and watch the videos they have to show him playing the song. (videos are 
pretty clear)


-TheBeanbandit
Tap to rate this tab
# A B C D E F G H I J K L M N O P Q R S T U V W X Y Z