Song name
# A B C D E F G H I J K L M N O P Q R S T U V W X Y Z

Smile Empty Soul - La River tab

Tuning: Db-Ab-Db-Gb-Bb-eb

Intro
|---------|
|---------|
|---------|
|-5---0---|
|-5---0---|
|-5---0---|

|-----------------------------------------------------------------|
|-----------------------------------------------------------------|
|---------------------------------7-7-7-7-7-7-7-7-7-7-7-7---------|
|-2-2-2-2-2-2-2-2-2-2-2-2-4-4-5-5-7-7-7-7-7-7-7-7-7-7-7-7-5-5-0-0-|
|-2-2-2-2-2-2-2-2-2-2-2-2-4-4-5-5-5-5-5-5-5-5-5-5-5-5-5-5-5-5-0-0-|
|-2-2-2-2-2-2-2-2-2-2-2-2-4-4-5-5-------------------------5-5-0-0-|

|-----------------------------------------------------------------|
|-----------------------------------------------------------------|
|-2-2-2-2-2-2-2-2-2-2-2-2---------5-5-5-5-5-5-5-5-5-5-5-5---------|
|-2-2-2-2-2-2-2-2-2-2-2-2-5-5-0-0-5-5-5-5-5-5-5-5-5-5-5-5-5-5-0-0-|
|-0-0-0-0-0-0-0-0-0-0-0-0-5-5-0-0-3-3-3-3-3-3-3-3-3-3-3-3-5-5-0-0-|
|-------------------------5-5-0-0-------------------------5-5-0-0-|

Verse
|-----------------------------------------------------------------|
|-----------------------------------------------------------------|
|-----------------------------------------------------------------|
|-2---------------------------------------------------------------|
|-2---------------------------------------------------------------|
|-2---------------------------------------------------------------|

|-----------------------------------------------------------------|
|-----------------------------------------------------------------|
|-----------------7---------------2---------------5-------7-------|
|-2---------------7---------------2---------------5-------7-----0-|
|-2---------------5---------------0---------------3-------5-----0-|
|-2-------------------------------------------------------------0-|

Chorus
|-----------------------------------------------------------------|
|-----------------------------------------------------------------|
|-------------------7-7-7-7-7-7-7-2-2-2-2-2-2-2-2-2-5-5-5-5-5-5-5-|
|-2-2-2-2-2-2-2-2-2-7-7-7-7-7-7-7-2-2-2-2-2-2-2-2-2-5-5-5-5-5-5-5-|
|-2-2-2-2-2-2-2-2-2-5-5-5-5-5-5-5-0-0-0-0-0-0-0-0-0-3-3-3-3-3-3-3-|
|-2-2-2-2-2-2-2-2-2-----------------------------------------------|

|-----------------------------------------------------------------|
|-----------------------------------------------------------------|
|-------------------7-7-7-7-7-7-7-2-2-2-2-2-2-2-2-2-5-5-5-5-5-5-5-|
|-2-2-2-2-2-2-2-2-2-7-7-7-7-7-7-7-2-2-2-2-2-2-2-2-2-5-5-5-5-5-5-5-|
|-2-2-2-2-2-2-2-2-2-5-5-5-5-5-5-5-0-0-0-0-0-0-0-0-0-3-3-3-3-3-3-3-|
|-2-2-2-2-2-2-2-2-2-----------------------------------------------|

|-----------------------------------------------------------------|
|-----------------------------------------------------------------|
|-------------------5-5-5-5-5-5-5-2-2-2-2-2-2-2-2-2---------------|
|-2-2-2-2-2-2-2-2-2-5-5-5-5-5-5-5-2-2-2-2-2-2-2-2-2-2-2-2-2-2-2-2-|
|-2-2-2-2-2-2-2-2-2-3-3-3-3-3-3-3-0-0-0-0-0-0-0-0-0-2-2-2-2-2-2-2-|
|-2-2-2-2-2-2-2-2-2---------------------------------2-2-2-2-2-2-2-|

                               (played only on first chorus)
|-----------------------------------------------------------------|
|-----------------------------------------------------------------|
|-5---5---5---5---5---5---5---5---7---7---7---7---7---7-----------|
|-5---5---5---5---5---5---5---5---7---7---7---7---7---7--(5)-(0)--|
|-3---3---3---3---3---3---3---3---5---5---5---5---5---5--(5)-(0)--|
|--------------------------------------------------------(5)-(0)--|

Bridge
|-----------------------------------------------------------------|
|-----------------------------------------------------------------|
|-----------------------------------------------------------------|
|-5-5-5-5-5-5-5-5-5-5-5-5-5-5-5-5-0-0-0-0-0-0-0-0-0-0-0-0-0-0-0-0-|
|-5-5-5-5-5-5-5-5-5-5-5-5-5-5-5-5-0-0-0-0-0-0-0-0-0-0-0-0-0-0-0-0-|
|-5-5-5-5-5-5-5-5-5-5-5-5-5-5-5-5-0-0-0-0-0-0-0-0-0-0-0-0-0-0-0-0-|

|-----------------------------------------------------------------|
|-----------------------------------------------------------------|
|---------------------------------5-5-5-5-5-5-5-5-5-5-5-5-5-5-5-5-|
|-2-2-2-2-2-2-2-2-2-2-2-2-2-2-2-2-5-5-5-5-5-5-5-5-5-5-5-5-5-5-5-5-|
|-2-2-2-2-2-2-2-2-2-2-2-2-2-2-2-2-3-3-3-3-3-3-3-3-3-3-3-3-3-3-3-3-|
|-2-2-2-2-2-2-2-2-2-2-2-2-2-2-2-2---------------------------------|

End With
|---------------------------------|
|---------------------------------|
|-7-7-7-7-7-7-7-7-7-7-7-7-7-7-----|
|-7-7-7-7-7-7-7-7-7-7-7-7-7-7-0---|
|-5-5-5-5-5-5-5-5-5-5-5-5-5-5-0---|
|-----------------------------0---|
Tap to rate this tab
# A B C D E F G H I J K L M N O P Q R S T U V W X Y Z