Song name
# A B C D E F G H I J K L M N O P Q R S T U V W X Y Z

Smile Empty Soul - Faker tab

tabbed by jasper
Smile Empty Soul - Faker

X = finger mute

Intro pt 1. slow wah + Distortion
Eb|-------------|------------|------------|------------| 
Bb|-------------|------------|------------|------------| 
Gb|-------------|------------|------------|------------| 
Db|-------------|------------|------------|------------| 
Ab|-0-0-0-0-x5-3|0-0-0-0-x5-3|0-0-0-0-x5-3|0-0-0-0-x8-6| 
Db|-0-0-0-0-----|0-0-0-0-----|0-0-0-0-----|0-0-0-0-----| 
Pm  . . . .       . . . .     . . . .      . . . .

Eb|-------------|------------|------------|-------------| 
Bb|-------------|------------|------------|-------------| 
Gb|-------------|------------|------------|-------------| 
Db|-------------|------------|------------|-------------| 
Ab|-0-0-0-0-x5-3|0-0-0-0-x5-3|0-0-0-0-x5-3|0-0-0-0------| 
Db|-0-0-0-0-----|0-0-0-0-----|0-0-0-0-----|0-0-0-0-5-3-0| 
Pm  . . . .       . . . .     . . . .      . . . .

Intro pt 2. Distortion
Eb|-------------|------------|------------|------------| 
Bb|-------------|------------|------------|------------| 
Gb|-------------|------------|------------|------------| 
Db|---------x7-5|--------x7-5|--------x7-5|--------x8-8| 
Ab|-0-0-0-0-x5-3|0-0-0-0-x5-3|0-0-0-0-x5-3|0-0-0-0-x6-6| 
Db|-0-0-0-0-----|0-0-0-0-----|0-0-0-0-----|0-0-0-0-----|  

Eb|-------------|------------|------------|------------| 
Bb|-------------|------------|------------|------------| 
Gb|-------------|------------|------------|------------| 
Db|---------x7-5|--------x7-5|--------x7-5|--------x8-8| 
Ab|-0-0-0-0-x5-3|0-0-0-0-x5-3|0-0-0-0-x5-3|0-0-0-0-x6-6| 
Db|-0-0-0-0-----|0-0-0-0-----|0-0-0-0-----|0-0-0-0-----| 

Verse 4x Clean
Eb|-------------|------------|------------|------------| 
Bb|-------------|------------|------------|------------| 
Gb|-------------|------------|------------|------------| 
Db|0------------|3-----------|8-----------|5-----------| 
Ab|0------------|3-----------|8-----------|5-----------| 
Db|0------------|3-----------|8-----------|5-----------|

Chorus Distortion
Eb|-------------|------------|------------|------------| 
Bb|-------------|------------|------------|------------| 
Gb|-------------|------------|------------|------------| 
Db|---------x7-5|--------x7-5|--------x7-5|--------x8-8| 
Ab|-0-0-0-0-x5-3|0-0-0-0-x5-3|0-0-0-0-x5-3|0-0-0-0-x6-6| 
Db|-0-0-0-0-----|0-0-0-0-----|0-0-0-0-----|0-0-0-0-----|  

verse Clean
chorus Distortion

bridge Distortion
Eb|--------|--------|--------|--------| 
Bb|--------|--------|--------|--------| 
Gb|--------|--------|--------|--------| 
Db|88888888|88888888|55555555|55555555| 
Ab|88888888|88888888|55555555|55555555| 
Db|88888888|88888888|55555555|55555555| 

Eb|--------------|--------------|--------------|--------------|
Bb|--------------|--------------|--------------|--------------|
Gb|--------------|--------------|--------------|--------------|
Db|--------------|--------------|--------------|--------------|
Ab|0-0-0*10-0-3--|0-0-0-10-0-5--|0-0-0-10-0-3--|0-0-0-10-0-5--|
Db|0-0-0*10-0-3--|0-0-0-10-0-5--|0-0-0-10-0-3--|0-0-0-10-0-5--|
(*this bit can be played like this but the B(*10) notes would require a drop B tuning.)

Eb|--------|--------|--------|--------|--------|
Bb|--------|--------|--------|--------|--------|
Gb|--------|--------|--------|--------|--------|
Db|--------|--------|55555555|55555555|5-------|
Ab|88888888|88888888|33333333|33333333|3-------|
Db|88888888|88888888|--------|--------|--------|
                                       ^stop this note
chorus Distortion
Eb|-------------|------------|------------|------------| 
Bb|-------------|------------|------------|------------| 
Gb|-------------|------------|------------|------------| 
Db|---------x7-5|--------x7-5|--------x7-5|--------x8-8| 
Ab|-0-0-0-0-x5-3|0-0-0-0-x5-3|0-0-0-0-x5-3|0-0-0-0-x6-6| 
Db|-0-0-0-0-----|0-0-0-0-----|0-0-0-0-----|0-0-0-0-----| 

outro Distortion
Eb|-------------|------------|------------|------------|
Bb|-------------|------------|------------|------------|
Gb|-------------|------------|------------|------------|
Db|---------x7-5|--------x7-5|--------x7-5|--------x8-8|
Ab|-0-0-0-0-x5-3|0-0-0-0-x5-3|0-0-0-0-x5-3|0-0-0-0-x6-6|
Db|-0-0-0-0-----|0-0-0-0-----|0-0-0-0-----|0-0-0-0-----|
Tap to rate this tab
 
# A B C D E F G H I J K L M N O P Q R S T U V W X Y Z