Song name
# A B C D E F G H I J K L M N O P Q R S T U V W X Y Z

Smile Empty Soul - False Alarm tab

-----------------------------------------------------------------------------
                             FALSE ALARM - Smile Empty Soul
-----------------------------------------------------------------------------
Tabbed by: ilmlan03
E-mail: ilmlan03@gmail.com

Tuning: Drop D + Half-Step Down

The song is pretty easy, here are just chords:

Intro (palm-muted) and Chorus:
eb|-------------------------------------------------------------------------|
Bb|-------------------------------------------------------------------------|
Gb|----2-----4--------------------------------------------------------------|
Db|-4--2--0--4--------------------------------------------------------------|
Ab|-4--0--0--2--------------------------------------------------------------|
Eb|-4-----0-----------------------------------------------------------------|

Verse:
eb|-x--x--x--2--------------------------------------------------------------|
Bb|-7--10-3--2--------------------------------------------------------------|
Gb|-6--9--2--4--------------------------------------------------------------|
Db|-4--7--0--4--------------------------------------------------------------|
Ab|-4--7--0--2--------------------------------------------------------------|
Eb|-4--7--0--x--------------------------------------------------------------|

Bridge:
eb|-------------------------------------------------------------------------|
Bb|-------------------------------------------------------------------------|
Gb|-2-----2--4-7------------------------------------------------------------|
Db|-2--4--2--4-7------------------------------------------------------------|
Ab|-0--4--0--2-5------------------------------------------------------------|
Eb|----4--------------------------------------------------------------------|
Tap to rate this tab
# A B C D E F G H I J K L M N O P Q R S T U V W X Y Z