Song name
# A B C D E F G H I J K L M N O P Q R S T U V W X Y Z

Smile Empty Soul - Sitting Ducks tab

This is tuned to drop C#. It is a fairly simple song. My favorite off the new album.


This part is played clean throughout the first like two minutes.

---------------------------------------------------|
---3--3--3--3---7--7--7--7--7--7--7--7-------------|
----------------------------------------7--7--6--6-|
---------------------------------------------------|
--2--2--2--2--/5--5--5--5--------------------------|
---------------------------5--5--5--5--5--5--5--5--|

This is after the second chorus and at the end with distortion.

---------------------|
---------------------|
--4-----5------------|
--4-x8--5-x8--5------|
--2-----3-----5-x16--|
--------------5------|

This is the bridge. It is played twice and omit the last four notes.

---------------------------------------------------------|
---3--3--3--3--3--3--3--3--------------------------------|
---------------------------------------------------------|
---------------------------9--9--9--9--7--7--7--7--------|
--2--2--2--2--2--2---------------------------------------|
--------------------0--0--/5--5--5--5--5--5--5--5--------|
Tap to rate this tab
 
# A B C D E F G H I J K L M N O P Q R S T U V W X Y Z