Song name
# A B C D E F G H I J K L M N O P Q R S T U V W X Y Z

Smile Empty Soul - Sitting Ducks tab

Smile Empty Soul: Sitting Ducks

Transcribed by: mysticguitar77

YouTube Channel: MysticGuitar77

Date last modified: January 28, 2014

Tuning: Drop C# (C#,G#,C#,F#,A#,D#)

Riff 1 (clean w/ some chorus)
D#|---------------------------------------------------------------------|
A#|----3---3---3---3-----7---7---7---7---7---7---7---7------------------|
F#|------------------------------------------------------7---7---6---6\-|
C#|---------------------------------------------------------------------|
G#|-/2---2---2---2---2/5---5---5---5------------------------------------|
C#|------------------------------------5---5---5---5---5---5---5---5----|

Play Riff 1 x4   "Shut down, falling..."

Riff 2   "We squawk like silly birds making all of the noises..."
D#|---------------------------------------------------------------------|
A#|----3---3---3---3-----7---7---7---7---7---7---7---7------------------|
F#|------------------------------------------------------7---7---7---7--|
C#|---------------------------------------------------------------------|
G#|-/2---2---2---2---2/5---5---5---5------------------------------------|
C#|------------------------------------5---5---5---5---5---5---5---5----|

Play Riff 2 x2   "We have all of the poisons in a row..."
Play Riff 1 x4   "Zone out, lie down..."
Play Riff 2 x2   "We squawk like silly birds making all of the noises..."
                  (2nd time through gets cut short)

Riff 3 (w/ distortion)   "In a row..."
D#|-----------------------------------------------------------------|
A#|-------------------------------------7-7-7---7-7-7---------------|
F#|-4-4-4-4-4-4-4-4-7-7-7-7-7-7-7-7-----7-7-7---7-7-7---7-7-7-6-6-6-|
C#|-4-4-4-4-4-4-4-4-7-7-7-7-7-7-7-7-5-5-5-5-5-5-5-5-5-5-5-5-5-5-5-5-|
G#|-2-2-2-2-2-2-2-2-5-5-5-5-5-5-5-5-5-5-5-5-5-5-5-5-5-5-5-5-5-5-5-5-|
C#|---------------------------------5-5-5-5-5-5-5-5-5-5-5-5-5-5-5-5-|

Play Riff 3 x2

Riff 4 (back to clean)
D#|------------------------------------------------------------------|
A#|----3---3---3---3---3---3---3---3---------------------------------|
F#|------------------------------------4---4---4---4-----------------|
C#|----------------------------------------------------7---7---7---7-|
G#|-/2---2---2---2---2---2---0---0-----------------------------------|
C#|----------------------------------5---5---5---5---5---5---5---5---|

Play Riff 4 x2   (2nd time through gets cut short)

Riff 5    "We squawk like silly birds making all of the noises..."
D#|---------------------------|
A#|-3-------7-------7---------|
F#|-------------------------7-|
C#|---------------------------|
G#|-2-------5-----------------|
C#|-----------------5-------5-|

Play Riff 5 x2   (pluck with pick/fingers and let chords ring out)
Play Riff 3 x4   "In a row..."

Ending   "In a row..."
D#|------------------|
A#|------------------|
F#|-4~---------------|
C#|-4~---------------|
G#|-2~---------------|
C#|------------------|

Enjoy!!
Tap to rate this tab
# A B C D E F G H I J K L M N O P Q R S T U V W X Y Z