Song name
# A B C D E F G H I J K L M N O P Q R S T U V W X Y Z

Smile Empty Soul - Chemicals tab

Smile Empty Soul: Chemicals

Transcribed by: mysticguitar77

YouTube Channel: MysticGuitar77

Date last modified: January 30, 2014

Tuning: Drop C# (C#,G#,C#,F#,A#,D#)

Riff 1 (clean w/ phaser)
D#|---------------------------------------------------------------------|
A#|---------------------------------------------------------------------|
F#|---------------------------------------------------------------------|
C#|---------------------------------------------------------------------|
G#|-8-10-10-8-10-8-10/12--12-12-12-12-8-10-10-8-10-8-10/12--12-12-12-12-|
C#|-0-0--0--0-0--0-0--0---0--0--0--0--0-0--0--0-0--0-0--0---0--0--0--0--|

D#|-------------------------------------------------------|
A#|-------------------------------------------------------|
F#|-------------------------------------------------------|
C#|-------------------------------------------------------|
G#|-8-10-10-8-10/12-8--5-5-5-5-8-10-10-8-10/12-8--5-5-5-5-|
C#|-0-0--0--0-0--0--0--0-0-0-0-0-0--0--0-0--0--0--0-0-0-0-|

Play Riff 1 x2

Riff 2 (distortion)
D#|---------------------------------------------------------------------|
A#|---------------------------------------------------------------------|
F#|-10-12-12-10-12-10-12/14--14-14-14-10-12-12-10-12-10-12/14--14-14-14-|
C#|-x--x--x--x--x--x--x--x---x--x--x--x--x--x--x--x--x--x--x---x--x--x--|
G#|-8--10-10-8--10-8--10/12--12-12-12-8--10-10-8--10-8--10/12--12-12-12-|
C#|-0--0--0--0--0--0--0--0---0--0--0--0--0--0--0--0--0--0--0---0--0--0--|

D#|---------------------------------------------------------|
A#|---------------------------------------------------------|
F#|-10-12-12-10-12/14-10--7-7-7-10-12-12-10-12/14-10--7-7-7-|
C#|-x--x--x--x--x--x--x---x-x-x-x--x--x--x--x--x--x---x-x-x-|
G#|-8--10-10-8--10/12-8---5-5-5-8--10-10-8--10/12-8---5-5-5-|
C#|-0--0--0--0--0--0--0---0-0-0-0--0--0--0--0--0--0---0-0-0-|

Play Riff 2 x2
Play Riff 1 x2   "Every time I see your face..."

Riff 3   "There ain't nothing left here for you to say..."
D#|----------------------|
A#|------------3---------|
F#|-10----7----2----5----|
C#|-8-----5----0----3----| just the chords, strumming pattern is 
G#|-8-----5----0----3----| pretty straightforward
C#|-8-----5----0----3----|
               ^ end on this chord final time

Play Riff 3 x4   "...so shut your mouth..."
Play Riff 2 x1
Play Riff 1 x2   "Every time I speak the truth..."
Play Riff 3 x4   "There ain't nothing left here for you to say..."

Solo/lead
D#|--------------------------------------------------------|
A#|--------------------------15-15-15-15-15-15-15-13-13-13-|
F#|-10-12-12-10-12-10-12/14--14-14-14-14-14-14-14-14-14-14-|
C#|-x--x--x--x--x--x--x--x---x--x--x--x--x--x--x--x--x--x--|
G#|-8--10-10-8--10-8--10/12--12-12-12-12-12-12-12-12-12-12-|
C#|-0--0--0--0--0--0--0--0---------------------------------|

D#|-------------------------------------------------------------------|
A#|-------------------------------------------------------------------|
F#|-12-12-11-11~--------------------10-12-12-10-12/14-10--7-7-7-7-7-7-|
C#|---------------10-10-10-10-10-10-x--x--x--x--x--x--x---x-x-x-x-x-x-|
G#|---------------------------------8--10-10-8--10/12-8---5-5-5-5-5-5-|
C#|---------------------------------0--0--0--0--0--0--0---0-0-0-0-0-0-|

D#|----------------------------------|
A#|----------------------------------|
F#|-5/7-7-7--5-5-7-7\5/7\5/10--10-10-|
C#|-x-x-x-x--x-x-x-x-x-x-x-x---x--x--|
G#|-3/5-5-5--3-3-5-5\3/5\3/8---8--8--|
C#|----------------------------------|

D#|--------------------------------------------|
A#|--------------------------15-15-15-15-15-15-|
F#|-10-12-12-10-12-10-12/14--14-14-14-14-14-14-|
C#|-x--x--x--x--x--x--x--x---x--x--x--x--x--x--|
G#|-8--10-10-8--10-8--10/12--12-12-12-12-12-12-|
C#|--------------------------------------------|

D#|------------------------------------------|
A#|-18-18-18---------------------------------|
F#|----------17-17---------------------------|
C#|----------------16-17-16~--16-17-19-19-19-|
G#|------------------------------------------|
C#|------------------------------------------|

D#|-----------------------------------|
A#|-----------------------------------|
F#|-10-12-12-10-12/14-10--7-7-7-7-7-7-|
C#|-x--x--x--x--x--x--x---x-x-x-x-x-x-|
G#|-8--10-10-8--10/12-8---5-5-5-5-5-5-|
C#|-0--0--0--0--0--0--0---0-0-0-0-0-0-|

D#|-------------------------------------------------|
A#|-------------------------------------------------|
F#|-14-14-14-14-17-17-17-17-19-19-19-19-22-22-22-22-|
C#|-x--x--x--x--x--x--x--x--x--x--x--x--x--x--x--x--|
G#|-12-12-12-12-15-15-15-15-17-17-17-17-20-20-20-20-|
C#|-------------------------------------------------|

Play Riff 3 x4   "There ain't nothing left here for you to say..."

Ending jam
D#|----------------------------------------------------------|
A#|-13-13-13~------------------------------------------------|
F#|-14-14-14~--------9-9-9h11-11-9-11----9-9-9h11-11-9-11/12-|
C#|-0--0--0~~--------0-0-0-0--0--0-0-----0-0-0-0--0--0-0--0--|
G#|----------------------------------------------------------|
C#|----------------------------------------------------------|

D#|-----------------------------------------|
A#|-----------------------------------------|
F#|-9-9-9h11-11-9-11----9-9-9h11-11-9-11/12-|
C#|-0-0-0-0--0--0-0-----0-0-0-0--0--0-0--0--|
G#|-----------------------------------------|
C#|-----------------------------------------|

D#|-----------------------------------------------------------------------|
A#|-13-13-13-15-15-13-15----13-13-13-15-15-13-15h17--17-17-17-17-17-17-17-|
F#|-14-14-14-14-14-14-14----14-14-14-14-14-14-14-14--14-14-14-14-14-14-14-|
C#|-0--0--0--0--0--0--0-----0--0--0--0--0--0--0--0---0--0--0--0--0--0--0--| 
G#|-----------------------------------------------------------------------|
C#|-----------------------------------------------------------------------|

Play above x2 (2nd time through has slight alterations, 
               basically is the same thing)

D#|---------------------------------------|
A#|-18-18-18--18-17-17-17--17-17-17-17-17-|
F#|-14-14-14--14-14-14-14--14-14-14-14-14-|
C#|-0--0--0---0--0--0--0---0--0--0--0--0--|
G#|---------------------------------------|
C#|---------------------------------------|

Play above x3 (again, each time has slight alterations, listen to song
               for exact timing and rhythm)

D#|-------------------------------------------------|
A#|-------------------------------------------------|
F#|-14-14-14-14-17-17-17-17-19-19-19-19-22-22-22-22-|
C#|-x--x--x--x--x--x--x--x--x--x--x--x--x--x--x--x--|
G#|-12-12-12-12-15-15-15-15-17-17-17-17-20-20-20-20-|
C#|-------------------------------------------------|

Play Riff 3 x4   "There ain't nothing left here for you to say..."

Enjoy!!
Tap to rate this tab
# A B C D E F G H I J K L M N O P Q R S T U V W X Y Z