Song name
# A B C D E F G H I J K L M N O P Q R S T U V W X Y Z

Smile Empty Soul - Eraser tab

tuning is half step down or drop Db, if you use drop Db just move everything on the E 
string up 2 frets.




intro\verse
eb|--------|--------|--------|--------|
Bb|--------|--------|--------|--------|
Gb|6-6-6-6-|2-2-2-2-|--------|4-4-4-4-|
Db|6-6-6-6-|2-2-2-2-|2-2-2-2-|4-4-4-4-|
Ab|4-4-4-4-|0-0-0-0-|2-2-2-2-|2-2-2-2-|
Eb|--------|--------|0-0-0-0-|--------|

pre-chorus
eb|--------|--------|--------|--------|
Bb|--------|--------|--------|--------|
Gb|--------|--------|--------|--------|
Db|2-2-2-2-|4-4-4-4-|5-5-5-5-|7-7-7-7-|
Ab|2-2-2-2-|4-4-4-4-|5-5-5-5-|7-7-7-7-|
Eb|0-0-0-0-|2-2-2-2-|3-3-3-3-|5-5-5-5-|

chorus pt.1
eb|--------|--------|--------|--------|
Bb|--------|--------|--------|--------|
Gb|6-6-6-6-|4-4-4-4-|--------|--------|
Db|6-6-6-6-|4-4-4-4-|4-4-4-4-|2-2-2-2-|
Ab|4-4-4-4-|2-2-2-2-|4-4-4-4-|2-2-2-2-|
Eb|--------|--------|2-2-2-2-|0-0-0-0-|

Chorus pt.2
eb|--------|--------|--------|--------|
Bb|--------|--------|--------|--------|
Gb|6-6-6-6-|8-8-8-8-|9-9-9-9-|11111111|
Db|--------|--------|--------|--------|
Ab|4-4-4-4-|6-6-6-6-|7-7-7-7-|9-9-9-9-|
Eb|--------|--------|--------|--------|

break
eb|--------|--------|--------|--------|
Bb|--------|--------|--------|--------|
Gb|4-4-4-4-|4-4-4-4-|4-4-4-4-|4-4-4-4-|
Db|4-4-4-4-|4-4-4-4-|4-4-4-4-|4-4-4-4-|
Ab|2-2-2-2-|2-2-2-2-|2-2-2-2-|2-2-2-2-|
Eb|--------|--------|--------|--------|

bridge
eb|--------|--------|--------|--------|
Bb|--------|--------|--------|--------|
Gb|--------|--------|4-4-4-4-|4-4-4-4-|
Db|4-4-4-4-|2-2-2-2-|4-4-4-4-|4-4-4-4-|
Ab|4-4-4-4-|2-2-2-2-|2-2-2-2-|2-2-2-2-|
Eb|2-2-2-2-|0-0-0-0-|--------|--------|

solos are not my thing sorry. :(

eb|--------|--------|--------|
Bb|--------|--------|--------|
Gb|6-6-6-6-|4-4-4-4-|--------|
Db|6-6-6-6-|4-4-4-4-|3-4-6---|
Ab|4-4-4-4-|2-2-2-2-|3-4-6---|
Eb|--------|--------|1-2-4---|

chorus

end with verse riff
Tap to rate this tab
# A B C D E F G H I J K L M N O P Q R S T U V W X Y Z