Song name
# A B C D E F G H I J K L M N O P Q R S T U V W X Y Z

Smile Empty Soul - The Other Side tab

I saw the way some people wrote it and decided to do it my way damnit...enjoy
Tuning = Halfstep Down Eb-Ab-Db-Gb-Bb-Eb

Guitar 1
--------------------------------------------------------------------------|
--------------------------------------------------------------------------|
--9---9---9-9---x-x--7--7--x--x---5--5--5--5-x-x---7---7------------------|
--9---9---9-9---x-x--7--7--x--x---5--5--5--5-x-x---7---7------------------|
--7---7---7-7---x-x--5--5--x--x---3--3--3--3-x-x---5---5------------------|
---------------------------------------------------5---5------------------|
Repeat as many times as needed

Chorus
-------------------------------------|
-------------------------------------|
------------------5------------------|
--2---4---5---7---5---7--7-----------|
--2---4---5---7---3---7--7-----------|
--0---2---3---5-------5--5-----------|
Follow Strumming Patterns
Then repeat from Pt.1 to chorus

Break down
After chorus
---------------------------------------------------------|
---------------------------------------------------------|
---------12--12---11--11------------11--11--9--9--7--7---|
--2--2----------------------5--5-------------------------|
--2--2---10--10---9---9-----5--5----9---9---7--7--5--5---|
--0--0----------------------3--3-------------------------|

---------------------------------------------|
---------------------------------------------|
---------12--12---14--14--12---16------------|
--2--2---------------------------------------|
--2--2---10--10---12--12--10---14------------|
--0--0---------------------------------------|
                           Bend--------------|
Repeat once in acoustic and again in distortion
Tap to rate this tab
# A B C D E F G H I J K L M N O P Q R S T U V W X Y Z