Song name
# A B C D E F G H I J K L M N O P Q R S T U V W X Y Z

Smile Empty Soul - Finding Myself tab

Great song. There are several versions on here and I think this will be easiest and
more true to the CD.

Instrument: Guitar
				    E a d g b e
Tuning: standard one step down. ( D G C F A D)

 
Intro: 2x. 

D|--------------------------------------0------------------------------||
A|-------1-0-------0-------0----------3--------------------------------||
F|---------------2-----------0------0----------------------------------||
C|--2----------0---------2---------------------------------------------||
G|0--------------------2----------3------------------------------------||
D|-----------3-------0-------------------------------------------------||

Vrs. listen to song for rhythm

D|0----x---0---0-------------------------------------------------------|| 
A|1----0---0---3-------------------------------------------------------||
F|2----2---4---0-------------------------------------------------------||
C|2----0---2---5-------------------------------------------------------||
G|0----5---2---3-------------------------------------------------------||
D|-----3---0-----------------------------------------------------------||

Chorus. (stronger use bar chords)

D|---------------------------------------------------------------------|| 
A|---------------------------------------------------------------------||
F|-----5---4---------------5---4---5-----------------------------------||
C|7----5---2---5-------7---5---2---5--------repeat 1x------------------||
G|7----3---2---5-------7---3---2---3-----------------------------------||
D|5--------0---3-------5-------0---------------------------------------||

Repeat intro into 2nd verse 1x
D|--------------------------------------0------------------------------||
A|-------1-0-------0-------0----------3--------------------------------||
F|---------------2-----------0------0----------------------------------||
C|--2----------0---------2---------------------------------------------||
G|0--------------------2----------3------------------------------------||
D|-----------3-------0-------------------------------------------------||

Vrs. 2

D|0----x---0---0-------------------------------------------------------|| 
A|1----0---0---3-------------------------------------------------------||
F|2----2---4---0-------------------------------------------------------||
C|2----0---2---5-------------------------------------------------------||
G|0----5---2---3-------------------------------------------------------||
D|-----3---0-----------------------------------------------------------||

Chorus. (stronger use bar chords)

D|---------------------------------------------------------------------|| 
A|---------------------------------------------------------------------||
F|-----5---4---------------5---4---5-----------------------------------||
C|7----5---2---5-------7---5---2---5--------repeat 1x------------------||
G|7----3---2---5-------7---3---2---3-----------------------------------||
D|5--------0---3-------5-------0---------------------------------------||


Break: play 1 x
D|-------------------------------------------------------------------||
A|-------0----------0-----------0------------1--0--------------------||
F|----------0----------0-----------0---------------------------------||
C|-------------------------------------------------------------------||
G|-0-0---------0-0---------0-0----------0-0--------------------------||
D|-------------------------------------------------------------------||

Bridge: “Some one like you, someone like me” listen to song

D|---------------------------------||
A|-----0---------------------------||
F|--------0-repeat 8 times---------||
C|---------------------------------||
G|0-0------------------------------||
D|---------------------------------||	“will se you free..”

similar to chorus 1x slowly

D|------x------------------------||
A|------x------------------------||
F|------x-4--5-------------------||
C|7--5--x-2--5-------------------||
G|7--5--x-2--3-------------------||
D|5--3--x-0----------------------||

Chorus. (stronger use bar chords)

D|---------------------------------------------------------------------|| 
A|---------------------------------------------------------------------||
F|-----5---4---------------5---4---5-----------------------------------||
C|7----5---2---5-------7---5---2---5--------repeat 1x------------------||
G|7----3---2---5-------7---3---2---3-----------------------------------||
D|5--------0---3-------5-------0---------------------------------------||

ending (same as intro) 2 x

D|--------------------------------------0------------------------------||
A|-------1-0-------0-------0----------3--------------------------------||
F|---------------2-----------0------0----------------------------------||
C|--2----------0---------2---------------------------------------------||
G|0--------------------2----------3------------------------------------||
D|-----------3-------0-------------------------------------------------||


Tap to rate this tab
# A B C D E F G H I J K L M N O P Q R S T U V W X Y Z