Song name
# A B C D E F G H I J K L M N O P Q R S T U V W X Y Z

Smile Empty Soul - Every Sunday tab

Help us improve GuitareTab! Take a short survey!
This song is one of my favorites from SES.
This song is also tuned Db Ab Gb Gb Bb Eb.

intro (clean with a vibrato effect)
Eb|---0----0----0-00--|
Bb|---0----0----0-00--|
GB|-7777-44444--------| repeat again but end with the 4
Db|-7777-44444-4-4----|                               4
Ab|-5555-22222-4-4----|                               4
Db|------------4-4----|

verse (clean)
Eb|----------|
Bb|----------|
Gb|-7~-4~----|
Db|-7~-4~-4~-|
Ab|-5~-2~-4~-|
Db|-------4~-|

chorus (lots of distortion)
Eb|------------------------------------------|
Bb|------------------------------------------|
Gb|--------44444444----------------------777-|
Db|-00-xxx-44444444-2h3h44-2h3h44-2h3h44-777-|
Ab|-00-xxx-22222222-2h3h44-2h3h44-2h3h44-555-|
Db|-00-xxx----------2h3h44-2h3h44-2h3h44-----|
repeat intro of the song for the first part of the bridge
solo:(lots of distortion and also 2nd part of the bridge)
Eb|---------------------------|
Bb|---------------------------|
Gb|-9b--9977s666s444h666h77---|
Db|---------------------------|
Ab|---------------------------|
Db|---------------------------|
final part of bridge
Eb|-------------------|
Bb|-------------------|
Gb|-7777-4444---------|
Db|-7777-4444-4444----|
Ab|-5555-2222-4444----|
Db|-----------4444----|
ending (play intro with the vibrato effect but in the end play this)
Eb|-------|
Bb|-------|
Gb|-------|
Db|-------|
Ab|-4-6-9-|
Db|-------|
This song may not be 100% correct but it's my best shot.
Related for Every Sunday tab