Song name
# A B C D E F G H I J K L M N O P Q R S T U V W X Y Z

Smile Empty Soul - Gods Army tab

Help us improve GuitareTab! Take a short survey!
Smile Empty Soul – God’s Army
Tuning: C Sharp (C#,G#,C#,F#,Bb,Db)
Album: Anxiety (2005)

Intro
D -------------------------------------------------------|
A -------------------------------------------------------|
F ------5------5------7------7------9------9-----7-----7-|
C -------------------------------------------------------| (4X)
G -------------------------------------------------------|
C --7------7------7------7------7-----7-----7------7-----|

D ---------------------------------------------------|
A ---------------------------------------------------|
F ------5-----5-----7-----7-----9-----9-----7-----7—-|
C ---------------------------------------------------| (2X)
G --5-----5-----5-----5-----5-----5-----5-----5------|
C ---------------------------------------------------|

D ----------------------------------------------------------|
A ----------------------------------------------------------|
F ------5------5------7------7------9------9-----7------7---|
C ----------------------------------------------------------| (2X)
G ----------------------------------------------------------|
C --7------7------7------7------7-----7-----7------7--------|

D -----------------------------------------------------|
A -----------------------------------------------------|
F ------5-----5-----7-----7-----9-----9-----7-----7----|
C -----------------------------------------------------| (2X)
G --5-----5-----5-----5-----5-----5-----5-----5--------|
C -----------------------------------------------------|

Chorus (2X)
D ------------------------------------------------------------------|
A ------------------------------------------------------------------|
F --9-----------12-------------7--------------------7-7-7-7~5-5-5-5-|
C --7-----------12-------------5--------------0-----x-x-x-x~x-x-x-x-|
G --7---(8X)----10---(8X)------5---(8X)-------0-----5-5-5-5~3-3-3-3-|
C --7-----------10-------------5--------------0---------------------|


D -----------------------------------------------|
A -----------------------------------------------|
F --9--9--9-----12--12--------5--5--/--7/--5—-2--|
C --7--7--7-----12--12--------3--3--/--5/--3--0--|
G --7--7--7-----10--10--------3--3--/--5/--3--0--|
C --7--7--7-----10--10--------3--3--/--5/--3--0--|

Verse
D---------------------------------------------------------|
A---------------------------------------------------------|
F------5------5------7------7------9------9-----7-----7---|
C---------------------------------------------------------| (4X)
G---------------------------------------------------------|
C--7------7------7------7------7-----7-----7------7-------|


D----------------------------------------------------|
A----------------------------------------------------|
F------5-----5-----7-----7-----9-----9-----7-----7---|
C----------------------------------------------------| (2X)
G--5-----5-----5-----5-----5-----5-----5-----5-------|
C----------------------------------------------------|


D---------------------------------------------------------|
A---------------------------------------------------------|
F------5------5------7------7------9-----9------7-----7---|
C---------------------------------------------------------| (2X)
G---------------------------------------------------------|
C--7------7------7------7------7-----7-----7------7-------|


D----------------------------------------------------------|
A----------------------------------------------------------|
F------5-----5-----7-----7-----9-----9-----7-----7---------|
C----------------------------------------------------------| (2X)
G--5-----5-----5-----5-----5-----5-----5-----5-------------|
C----------------------------------------------------------|


Chorus (2x)
D ------------------------------------------------------------------|
A ------------------------------------------------------------------|
F --9-----------12-------------7--------------------7-7-7-7~5-5-5-5-|
C --7-----------12-------------5--------------0-----x-x-x-x~x-x-x-x-|
G --7---(8X)----10---(8X)------5---(8X)-------0-----5-5-5-5~3-3-3-3-|
C --7-----------10-------------5--------------0---------------------|

Bridge
D ------------------------------------------------|
A ------------------------------------------------|
F --9--9--9-----12--12--------5--5--/--7/--5—-2---|
C --7--7--7-----12--12--------3--3--/--5/--3--0---|(4X)
G --7--7--7-----10--10--------3--3--/--5/--3--0---|
C --7--7--7-----10--10--------3--3--/--5/--3--0---|

Outro
D ------------------------------------------------------------------|
A ------------------------------------------------------------------|
F --9-----------12-------------7--------------------7-7-7-7~5-5-5-5-|
C --7-----------12-------------5--------------0-----x-x-x-x~x-x-x-x-|
G --7---(8X)----10---(8X)------5---(8X)-------0-----5-5-5-5~3-3-3-3-|
C --7-----------10-------------5--------------0---------------------|
Related for Gods Army tab