Song name
# A B C D E F G H I J K L M N O P Q R S T U V W X Y Z

Smile Empty Soul - Bright Side tab

Help us improve GuitareTab! Take a short survey!
Intro/Verse 1 (Palm-Muted)
|---------------------------------|
|---------------------------------|
|-------6h8---6h8-------6h8---6h8-|
|-------x-----x---------x-----x---|
|-6-6-6-----6-----6-6-6-----6-----|
|---------------------------------|

|---------------------|
|---------------------|
|---------------------|
|-5-5-5-5-7-7-5-5-0-0-|
|-5-5-5-5-7-7-5-5-0-0-|
|-5-5-5-5-7-7-5-5-0-0-|

Verse 2
|---------------------------------|
|---------------------------------|
|-------------------------8-8-8-8-|
|-4-4-4-4-x-x-x-x-4-4-4-4-x-x-x-x-|
|-4-4-4-4-x-x-x-x-4-4-4-4-6-6-6-6-|
|-4-4-4-4-x-x-x-x-4-4-4-4---------|

Looking at the bright side...
|-----------------------------------------------------------------|
|-----------------------------------------------------------------|
|-----------------------------------------------------------------|
|-5-5-5-5-5-5-5-5-5-5-5-5-5-5-5-5-3-3-3-3-3-3-3-3-3-3-3-3-3-3-3-3-|
|-5-5-5-5-5-5-5-5-5-5-5-5-5-5-5-5-3-3-3-3-3-3-3-3-3-3-3-3-3-3-3-3-|
|-5-5-5-5-5-5-5-5-5-5-5-5-5-5-5-5-3-3-3-3-3-3-3-3-3-3-3-3-3-3-3-3-|

                       gimme just
|---------------------------------|
|---------------------------------|
|---------------------------------|
|-4-4-4-4-x-4-x-4-4-4-4-4-4-4-4-4-|
|-4-4-4-4-x-4-x-4-4-4-4-4-4-4-4-4-|
|-4-4-4-4-x-4-x-4-4-4-4-4-4-4-4-4-|
                  . . . . . . . .

One more chance to think about it
|--------------------|
|--------------------|
|-8------------------|
|-x--------4----2----|
|-6--------4----2----|
|----------4----2----|

Chorus
|-----------------------------------------------------------------|
|-----------------------------------------------------------------|
|-----------------------------------------------------------------|
|-4-4-4-4-4-4-4-4-4-4-4-4-4-4-4-4-6-6-6-6-6-6-6-6-6-6-6-6-6-6-6-6-|
|-4-4-4-4-4-4-4-4-4-4-4-4-4-4-4-4-6-6-6-6-6-6-6-6-6-6-6-6-6-6-6-6-|
|-4-4-4-4-4-4-4-4-4-4-4-4-4-4-4-4-6-6-6-6-6-6-6-6-6-6-6-6-6-6-6-6-|

|-----------------------------------------------------------------|
|-----------------------------------------------------------------|
|-8-8-8-8-8-8-8-8-8-8-8-8-8-8-8-8---------------------------------|
|-x-x-x-x-x-x-x-x-x-x-x-x-x-x-x-x-6-6-6-6-6-6-6-6-6-6-6-6-6-6-6-6-|
|-6-6-6-6-6-6-6-6-6-6-6-6-6-6-6-6-6-6-6-6-6-6-6-6-6-6-6-6-6-6-6-6-|
|---------------------------------6-6-6-6-6-6-6-6-6-6-6-6-6-6-6-6-|

|-----------------------------------------------------------------|
|-----------------------------------------------------------------|
|-----------------------------------------------------------------|
|-4-4-4-4-4-4-4-4-4-4-4-4-4-4-4-4-6-6-6-6-6-6-6-6-6-6-6-6-6-6-6-6-|
|-4-4-4-4-4-4-4-4-4-4-4-4-4-4-4-4-6-6-6-6-6-6-6-6-6-6-6-6-6-6-6-6-|
|-4-4-4-4-4-4-4-4-4-4-4-4-4-4-4-4-6-6-6-6-6-6-6-6-6-6-6-6-6-6-6-6-|

|---------------------------------------------------------------------------|
|---------------------------------------------------------------------------|
|---------------------------------------------------------------------------|
|-6-6-6-6-6-6-6-6-6-6-6-6-6-6-6-6-10-10-10-10-10-10-10-10-10-10-8-8-8-8-8-8-|
|-6-6-6-6-6-6-6-6-6-6-6-6-6-6-6-6-10-10-10-10-10-10-10-10-10-10-8-8-8-8-8-8-|
|-6-6-6-6-6-6-6-6-6-6-6-6-6-6-6-6-10-10-10-10-10-10-10-10-10-10-8-8-8-8-8-8-|

Bridge
Coming Soon!
Related for Bright Side tab