Song name
# A B C D E F G H I J K L M N O P Q R S T U V W X Y Z

Smile Empty Soul - To The Ground tab

===============================================================
		[To The Ground - Smile Empty Soul]
===============================================================

Tuning: Drop D and one half step down
(Db Ab Db Gb Bb Eb)

Tabbed by: Chris Wilson

Email: filtered_through@yahoo.com

Intro:
Eb|---------------------------------------------|
Bb|---------------------------------------------|
Gb|------------------------------------------6b-|
Db|2-4-4---2-4-4---2-4-4---2-4-4-7-7-7-4-0---0--| 
Ab|2-4-4---2-4-4---2-4-4---2-4-4-7-7-7-4-0------|
Db|2-4-4---2-4-4---2-4-4---2-4-4-7-7-7-4-0------|
*Strum the last part several times while slowly bending
*On the 4th repeat ignore the bend

Verse:
Eb|---------------------------------------------|
Bb|----------------------------------------(3)--|
Gb|----------------------------------------(2)--|
Db|2-4-4---2-4-4---2-4-4---2-4-7-7-7-4-0---(0)--| 
Ab|2-4-4---2-4-4---2-4-4---2-4-7-7-7-4-0---(0)--|
Db|2-4-4---2-4-4---2-4-4---2-4-7-7-7-4-0--------|
*Play the part in ()'s on the 2nd and 4th time

Chorus:
Eb|---------------------------------------------|
Bb|---------------------------------------------|
Gb|---------------------------------------------|
Db|---------4--------7--------0--------2--------| 
Ab|---------4--------7--------0--------2--------|
Db|---------4--------7--------0--------2--------|
*These are just the chords, listen to song to figure out strumming pattern

Bridge:
Eb|---------------------------------------------|
Bb|---------------------------------------------|
Gb|---------------------------------------------|
Db|--------4-------11-------0------7-----2------| 
Ab|--------4-------11-------0------7-----2------|
Db|--------4-------11-------0------7-----2------|
*Again these are just the chords, figure out the pattern

Post-Bridge:
Eb|---------------------------------------------|
Bb|---------------------------------------------|
Gb|---------------------------------------------|
Db|---------4-4-7-7-7-0-------------------------| 
Ab|---------4-4-7-7-7-0-------------------------|
Db|---------4-4-7-7-7-0-------------------------|

Outro:
Eb|---------------------------------------------|
Bb|---------------------------------------------|
Gb|---------------------------------------------|
Db|---------7--------2--------4\----------------| 
Ab|---------7--------2--------4\----------------|
Db|---------7--------2--------4\----------------|

Well there it is, this is my first tab ever, so please be gentle! :)
Would love to hear feedback.  Enjoy!
Tap to rate this tab
# A B C D E F G H I J K L M N O P Q R S T U V W X Y Z