Song name
# A B C D E F G H I J K L M N O P Q R S T U V W X Y Z

Smile Empty Soul - Self Inflicted tab

-------------------------------------------------------------------------------
			     Self Inflicted - Smile Empty Soul
-------------------------------------------------------------------------------

Tabbed by: Rob Oaten
Email: theoatenatoris@hotmail.com

Tuning: Drop Db = eb Bb Gb Db Ab Db

   Intro part1 - [Guitar Clean + Flanger] (0.00 - 0.10)
eb|---------------------------------------------------------------------------|
Bb|---------------------------------------------------------------------------|
Gb|---------------------------------------------------------------------------|
Db|--0---0---0-0--1-1--1--1-1--/8---8---8-8--10-10--10--10-10-------( x 2 )---|
Ab|--0---0---0-0--1-1--1--1-1--/8---8---8-8--10-10--10--10-10-----------------|
Db|--0---0---0-0--1-1--1--1-1--/8---8---8-8--10-10--10--10-10-----------------|

   Intro Part2 - [Guitar Distortion] (0.11 - 0.21)
eb|---------------------------------------------------------------------------|
Bb|---------------------------------------------------------------------------|
Gb|---------------------------------------------------------------------------|
Db|--0---0---0-0--1-1--1--1-1--/8---8---8-8--10-10--10--10-10-------( x 2 )---|
Ab|--0---0---0-0--1-1--1--1-1--/8---8---8-8--10-10--10--10-10-----------------|
Db|--0---0---0-0--1-1--1--1-1--/8---8---8-8--10-10--10--10-10-----------------|

   Verse 1 - [Bass Line] (plays the length of the verse 0.22 - 1.04)
Gb|---------------------------------------------------------------------------|
Db|---------------------------------------------------------------------------|
Ab|-----------------------------------------------------------------( x 8 )---|
Db|--0--0--0--0--1--1--1--1--8--8--8--8--10--10--10--10-----------------------|

   Verse 1 - [Guitar Clean] (0.43 - 1.04)
eb|---------------------------------------------------------------------------|
Bb|--------3-----------3-----------3-------------3----------------------------|
Gb|-----------2-----------2-----------0--------------0------------------------|
Db|-----------------------------------------------------------------( x 4 )---|
Ab|--------------------------3--3--------5---5--------------------------------|
Db|--0--0--------1--1---------------------------------------------------------|

   Pre-chorus 1 - [Guitar Distortion] (1.03 - 1.04)
eb|---------------------------------------------------------------------------|
Bb|---------------------------------------------------------------------------|
Gb|---------------------------------------------------------------------------|
Db|--10-10-10-10--------------------------------------------------------------|
Ab|--10-10-10-10--------------------------------------------------------------|
Db|--10-10-10-10--------------------------------------------------------------|

   Chorus 1 - [Guitar Distortion] (1.05 - 1.25)
eb|---------------------------------------------------------------------------|
Bb|---------------------------------------------------------------------------|
Gb|---------------------------------------------------------------------------|
Db|--0---0---0-0--10-10--10--10-10--8---8---8-8--3-3--3--3-3--10---10---10-10-|
Ab|--0---0---0-0--10-10--10--10-10--8---8---8-8--3-3--3--3-3--10---10---10-10-|
Db|--0---0---0-0--10-10--10--10-10--8---8---8-8--3-3--3--3-3--10---10---10-10-|

eb|---------------------------------------------------------------------------|
Bb|---------------------------------------------------------------------------|
Gb|---------------------------------------------------------------------------|
Db|--10-10--10--10-10--8---8---8-8--7-7--7--7-7-------( x 2 )-----------------|
Ab|--10-10--10--10-10--8---8---8-8--7-7--7--7-7-------------------------------|
Db|--10-10--10--10-10--8---8---8-8--7-7--7--7-7-------------------------------|

   Pre-Verse (same as intro) - [Guitar Distortion] (1.26 - 1.36)
eb|---------------------------------------------------------------------------|
Bb|---------------------------------------------------------------------------|
Gb|---------------------------------------------------------------------------|
Db|--0---0---0-0--1-1--1--1-1--/8---8---8-8--10-10--10--10-10-------( x 2 )---|
Ab|--0---0---0-0--1-1--1--1-1--/8---8---8-8--10-10--10--10-10-----------------|
Db|--0---0---0-0--1-1--1--1-1--/8---8---8-8--10-10--10--10-10-----------------|

 Verse 2 - [Bass Line] (plays the length of the verse 1.37 - 2.19)
Gb|---------------------------------------------------------------------------|
Db|---------------------------------------------------------------------------|
Ab|-----------------------------------------------------------------( x 8 )---|
Db|--------0--0--0--0--1--1--1--1--8--8--8--8--10--10--10--10-----------------|

   Verse 2 - [Guitar Clean] (1.57 - 2.19)
eb|--0------------------------------------------------------------------------|
Bb|---3----------3-----------3-----------3-------------3----------------------|
Gb|----2------------2-----------2-----------0--------------0------------------|
Db|-----0------------------------------------------------------------( x 4 )--|
Ab|-------------------------------3--3--------5---5---------------------------|
Db|--------0--0--------1--1---------------------------------------------------|

   Pre-chorus 2 - [Guitar Distortion] (2.18 - 2.19)
eb|---------------------------------------------------------------------------|
Bb|---------------------------------------------------------------------------|
Gb|---------------------------------------------------------------------------|
Db|--10-10-10-10--------------------------------------------------------------|
Ab|--10-10-10-10--------------------------------------------------------------|
Db|--10-10-10-10--------------------------------------------------------------|

   Chorus 2 - [Guitrar Distortion] (2.20 - 2.40)
eb|---------------------------------------------------------------------------|
Bb|---------------------------------------------------------------------------|
Gb|---------------------------------------------------------------------------|
Db|--0---0---0-0--10-10--10--10-10--8---8---8-8--3-3--3--3-3--10---10---10-10-|
Ab|--0---0---0-0--10-10--10--10-10--8---8---8-8--3-3--3--3-3--10---10---10-10-|
Db|--0---0---0-0--10-10--10--10-10--8---8---8-8--3-3--3--3-3--10---10---10-10-|

eb|---------------------------------------------------------------------------|
Bb|---------------------------------------------------------------------------|
Gb|---------------------------------------------------------------------------|
Db|--10-10--10--10-10--8---8---8-8--7-7--7--7-7-------( x 2 )-----------------|
Ab|--10-10--10--10-10--8---8---8-8--7-7--7--7-7-------------------------------|
Db|--10-10--10--10-10--8---8---8-8--7-7--7--7-7-------------------------------|

   Pre-Bridge (same as intro) - [Guitar Distortion] (2.41 - 2.51)
eb|---------------------------------------------------------------------------|
Bb|---------------------------------------------------------------------------|
Gb|---------------------------------------------------------------------------|
Db|--0---0---0-0--1-1--1--1-1--/8---8---8-8--10-10--10--10-10-------( x 2 )---|
Ab|--0---0---0-0--1-1--1--1-1--/8---8---8-8--10-10--10--10-10-----------------|
Db|--0---0---0-0--1-1--1--1-1--/8---8---8-8--10-10--10--10-10-----------------|
  
   Bridge - Rythem [Guitar Clean] (2.52 - 3.46)
eb|---------------------------------------------------------------------------|
Bb|---------------------------------------------------------------------------|
Gb|--------2--2--------2--2----------12--12----------12--12-------------------|
Db|--0--0--0--0--0--0--0--0--10--10--10--10--10--10--10--10-------------------|
Ab|--0--0--0--0--0--0--0--0--10--10--10--10--10--10--10--10-------------------|
Db|--0--0--0--0--0--0--0--0--10--10--10--10--10--10--10--10-------------------|

eb|---------------------------------------------------------------------------|
Bb|---------------------------------------------------------------------------|
Gb|--------5--5-----5--5--------5--5--------------7--7------------------------|
Db|--3--3--3--3--3--3--3--3--3--3--3--3--3--5--5--5--5--------------( x 5 )---|
Ab|--3--3--3--3--3--3--3--3--3--3--3--3--3--5--5--5--5------------------------|
Db|--3--3--3--3--3--3--3--3--3--3--3--3--3--5--5--5--5------------------------|

   Bridge - Lead [Guitar Clean] (3.22 - 3.46)
eb|------------------------10-----10------------------------------------------|
Bb|--10-13--10-13--10---10-----10-----10--10-13-10--13-10--10-13--10--13-10---|
Gb|---------------------------------------------------------------------------|
Db|-----------------------------------------------------------------( x 2 )---|
Ab|---------------------------------------------------------------------------|
Db|---------------------------------------------------------------------------|

Chorus 3 - [Guitrar Distortion] (3.47 - 4.07)
eb|---------------------------------------------------------------------------|
Bb|---------------------------------------------------------------------------|
Gb|---------------------------------------------------------------------------|
Db|--0---0---0-0--10-10--10--10-10--8---8---8-8--3-3--3--3-3--10---10---10-10-|
Ab|--0---0---0-0--10-10--10--10-10--8---8---8-8--3-3--3--3-3--10---10---10-10-|
Db|--0---0---0-0--10-10--10--10-10--8---8---8-8--3-3--3--3-3--10---10---10-10-|

eb|---------------------------------------------------------------------------|
Bb|---------------------------------------------------------------------------|
Gb|---------------------------------------------------------------------------|
Db|--10-10--10--10-10--8---8---8-8--7-7--7--7-7-------( x 2 )-----------------|
Ab|--10-10--10--10-10--8---8---8-8--7-7--7--7-7-------------------------------|
Db|--10-10--10--10-10--8---8---8-8--7-7--7--7-7-------------------------------|

   Outro (same as intro) - [Guitar Distortion] (4.08 - 4.44)
eb|---------------------------------------------------------------------------|
Bb|---------------------------------------------------------------------------|
Gb|---------------------------------------------------------------------------|
Db|--0---0---0-0--1-1--1--1-1--/8---8---8-8--10-10--10--10-10-------( x 3 )---|
Ab|--0---0---0-0--1-1--1--1-1--/8---8---8-8--10-10--10--10-10-----------------|
Db|--0---0---0-0--1-1--1--1-1--/8---8---8-8--10-10--10--10-10-----------------|

eb|---------------------------------------------------------------------------||
Bb|---------------------------------------------------------------------------||
Gb|---------------------------------------------------------------------------||
Db|--0---0---0-0--1-1--1--1-1--/8------------10------------0------------------||
Ab|--0---0---0-0--1-1--1--1-1--/8------------10------------0------------------||
Db|--0---0---0-0--1-1--1--1-1--/8------------10------------0------------------||

Lyrics

Verse 1

You see these cuts and bruises
Isn't this all so amusing
I feel the emptiness of just a another day in hell (day in hell)
My life is so confusing
Do this to myself I'm losing
Guess I'm only proving
What everyone can see but me

Chorus 1

And I won't let myself be happy
I cut myself just to feel the pain
And I won't give up anything for you
I'm going down and no one can save me
Were going down and no one can save me

Verse 2

I am cold my legs are shaking
Theres no hope right now I'm begging
For just one sight to show me some one out there really cares (really cares)
My clothes are soaked I'm crying
Theres no doubt I know I'm dieing
I did this to myself and that's the part I can't believe

Chorus 2

And I won't let myself be happy
I cut myself just to feel the pain
And I won't give up anything for you
I'm going down and no one can save me
Were going down and no one can save me
Going down and no one can save me

Bridge

These cuts and bruises are all self inflicted
These cuts and bruises are all self inflicted
These cuts and bruises are all self inflicted
These cuts and bruises are all self inflicted

Final Chorus

I won't let myself be happy
I cut myself just to feel the pain
And I won't give up anything for you
Were going down and no one can save me
I'm going down and no one can save me
I'm going down and no one can save me
Wer're going down and no one can save me
Going down and no one can save me


| /  slide up
| \  slide down
| h  hammer-on
| p  pull-off
| ~  vibrato
| +  harmonic
| x  Mute note
===============================================================================
Tap to rate this tab
# A B C D E F G H I J K L M N O P Q R S T U V W X Y Z