Guitaretab - guitar tabs
Song name
# A B C D E F G H I J K L M N O P Q R S T U V W X Y Z

Smile Empty Soul - Freaks Are Coming tab

Smile Empty Soul - The Freaks are Coming

Album: Vultures
Instrument: Guitar
Tuning: Db Ab Db Gb Bb eb
Composer: Sean Danielsen, Ryan Martin, Jake Kilmer & Mike Booth
Tabbed by: Sam Mountain

Intro (Guitar 1) (8X)

e||------------------------------------|
B||------------------------------------|
G||-----------------9-9-9-9-9-10-10-10-|
D||---------7-7-7-7--------------------|
A||-8-8-8-8----------------------------|
E||------------------------------------|

Intro (Guitar 2) (Comes in 4th measure)(Listen for timing)

e||-------|
B||-------|
G||-------|
D||-0-3-0-|
A||-0-3-0-|
E||-0-3-0-|

Verse (2X)

e||------------------------------------|
B||------------------------------------|
G||-----------------9-9-9-9-9-10-10-10-|
D||---------7-7-7-7--------------------| (2X)
A||-8-8-8-8----------------------------|
E||------------------------------------|

e||------------------------------------|
B||------------------------------------|
G||-----------------9-9-9-9-9-10-10-10-|
D||-0-0-0-0-7-7-7-7--------------------| (1X)
A||------------------------------------|
E||------------------------------------|

e||------------------------------------|
B||------------------------------------|
G||-----------------9-9-9-9-9-10-10-10-|
D||-8-8-8-8-7-7-7-7--------------------| (1X)
A||------------------------------------|
E||------------------------------------|

Interlude 1 (1X)

("Insane")

e||-----
B||-----
G||-----
D||-8-7-
A||-8-7-
E||-8-7-

Pre-Chorus (1X)

("Scared of the changing world around you")

e||---------|
B||---------|
G||---5-----|
D||-0-5-8-7-|
A||-0-3-8-7-|
E||-0---8-7-|

("You know what to do") (1X)

e||-------------|
B||-------------|
G||-----------5-|
D||-0-0-0-0-0-5-|
A||-0-0-0-0-0-3-|
E||-0-0-0-0-0---|

Chorus

e||---------|
B||---------|
G||-------5-|
D||-3-5-0-5-| (3X)
A||-3-5-0-3-|
E||-3-5-0---|

e||-----------|
B||-----------|
G||--------5--|
D||-8-10-0-5--| (1X)
A||-8-10-0-3--|
E||-8-10-0----|

Interlude 2 (Guitar 1) (4X)

e||------------------------------------|
B||------------------------------------|
G||-----------------9-9-9-9-9-10-10-10-|
D||---------7-7-7-7--------------------|
A||-8-8-8-8----------------------------|
E||------------------------------------|

Interlude 2 (Guitar 2) (Comes in 3rd measure) (Listen for timing)

e||-------|
B||-------|
G||-------|
D||-0-3-0-|
A||-0-3-0-|
E||-0-3-0-|

Verse (2X)

e||------------------------------------|
B||------------------------------------|
G||-----------------9-9-9-9-9-10-10-10-|
D||---------7-7-7-7--------------------| (2X)
A||-8-8-8-8----------------------------|
E||------------------------------------|
[ Tab from: http://www.guitaretab.com/s/smile-empty-soul/80136.html ]
e||------------------------------------|
B||------------------------------------|
G||-----------------9-9-9-9-9-10-10-10-|
D||-0-0-0-0-7-7-7-7--------------------| (1X)
A||------------------------------------|
E||------------------------------------|

e||------------------------------------|
B||------------------------------------|
G||-----------------9-9-9-9-9-10-10-10-|
D||-8-8-8-8-7-7-7-7--------------------| (1X)
A||------------------------------------|
E||------------------------------------|

Interlude 1 (1X)

("Insane")

e||-----
B||-----
G||-----
D||-8-7-
A||-8-7-
E||-8-7-

Pre-Chorus (1X)

("Scared of the changing world around you")

e||---------|
B||---------|
G||---5-----|
D||-0-5-8-7-|
A||-0-3-8-7-|
E||-0---8-7-|

("You know what to do") (1X)

e||-------------|
B||-------------|
G||-----------5-|
D||-0-0-0-0-0-5-|
A||-0-0-0-0-0-3-|
E||-0-0-0-0-0---|

Chorus

e||---------|
B||---------|
G||-------5-|
D||-3-5-0-5-| (3X)
A||-3-5-0-3-|
E||-3-5-0---|

e||-----------|
B||-----------|
G||--------5--|
D||-8-10-0-5--| (1X)
A||-8-10-0-3--|
E||-8-10-0----|

Solo (Guitar 1)

e||-12b13b12-10-12b13b12-10-12b13b12-8-12b13b12-10-15-13-|
B||------------------------------------------------------|
G||------------------------------------------------------| (2X)
D||------------------------------------------------------|
A||------------------------------------------------------|
E||------------------------------------------------------|

(Solo) (Guitar 2) (Listen for timing)

e||-------------|
B||-13-15-13-10-|
G||-------------| (2X)
D||-------------|
A||-------------|
E||-------------|

Bridge (4X) (Bass only on 1st 2X)

e||---------|
B||---------|
G||---------|
D||-3-5-0-0-| (1X)
A||-3-5-0-0-|
E||-3-5-0-0-|
. . . .

e||------------|
B||------------|
G||-3-5--------|
D||-3-5-5-5----| (1X)
A||-1-3-5-5----|
E||-----5-5----|
. . . .

e||---------|
B||---------|
G||---------|
D||-3-2-0-0-| (1X)
A||-3-2-0-0-|
E||-3-2-0-0-|
. . . .

e||---------|
B||---------|
G||-3-------|
D||-3-7-5-5-| (1X)
A||-1-7-5-5-|
E||---7-5-5-|

. . . .

Interlude (1X)

e||---
B||---
G||-5-
D||-5-
A||-3-
E||---

Chorus

e||---------|
B||---------|
G||-------5-|
D||-3-5-0-5-| (3X)
A||-3-5-0-3-|
E||-3-5-0---|

e||-----------|
B||-----------|
G||--------5--|
D||-8-10-0-5--| (1X)
A||-8-10-0-3--|
E||-8-10-0----|

Outro (2X)

e||----------|
B||----------|
G||--------5-|
D||-8-10-0-5-|
A||-8-10-0-3-|
E||-8-10-0---|

End On (1X)

e||----------|
B||----------|
G||-5-5--5-5-|
D||-5-5--5-5-|
A||-3-3--3-3-|
E||----------|
_________________
- Sam

www.myspace.com/sammountain

(My Band) Silence Breaks
Related for Freaks Are Coming tab
Advertisement will be closed in 10 seconds