Song name
# A B C D E F G H I J K L M N O P Q R S T U V W X Y Z

Smile Empty Soul - Vultrues tab

Smile Empty Soul
Vultures
2006-Vultures

Drop D

Please im 16 I love smile empty soul this is my first tab its probably not 100% but i 
it gose well and it will hold you over


{Verse}

 When all the fish, are in, the game(same pattern trough verse)
|--------------------------------------------------------|
|--------------------------------------------------------|
|---7-7-7-7-7\-----9-9-9\---11-11--12-12-11--------------|
|---0-0-0-0-0------0-0-0----0-0-0------------------------|
|---5-5-5-5-5\-----7-7-7\---9-9-9------------------------|
|---0-0-0-0-0------0-0-0----0-0-0------------------------|

{Choras}
Thats why I... hate... the smiles...,And i hate the flies,
|--------------------------------------------------------|
|---0--0--0----------------------------------------------|
|---11-11-11---7--7--0-0-0-0-0-0-0-0-0-0-0-0-0--4-4-4-4--|
|---0--0--0----7--7--5-5-5-5-5-5-5-5-5-0-0-0-0--4-4-4-4--|
|---9--9--9----5--5--5-5-5-5-5-5-5-5-5-0-0-0-0--2-2-2-2--|
|---0--0--0----0--0--5-5-5-5-5-5-5-5-5-0-0-0-0--0-0-0-0--|

That buzz around the bull shit
|--------------------------------------------------------|
|--------------------------------------------------------|
|4-7-7-7-7-7--0-0-0-0-0--4-4-4-x-x--4--------------------|
|4-7-7-7-7-7--0-0-0-0-0--4-4-4-x-x--2--------------------|
|2-5-5-5 5-5--0-0-0-0-0--2-2-2-x-x--2--------------------|
|0-0-0-0-0-0--0-0-0-0-0--0-0-0-x-x--0--------------------|

    So I can't, wait... to die,  so all the mouthes of the...,
|----------------------------------------------------------|
|----------------------------------------------------------|
|-4-4-4/-7-------0-0-0---0-0-0-0-0-0-0-0-0-0-4-4-4-4-4-4-4-|
|-4-4-4/-7-------0-0-0---5-5-5-5-5-5-0-0-0-0-4-4-4-4-4-4-4-|
|-2-2-2/-5-------0-0-0---5-5-5-5-5-5-0-0-0-0-2-2-2-2-2-2-2-|
|-0-0-0--0-------0-0-0---5-5-5-5-5-5-0-0-0-0-0-0-0-0-0-0-0-|


  Vul--tures, can be fed...
|----------------------------------------------------------|
|----------------------------------------------------------|
|---7--7--7-7-7-7\----4-4-4\ x-x--4------------------------|
|---7--7--7-7-7-7\----4-4-4\-x-x--2------------------------|
|---5--5--5-5-5-5\----2-2-2\-x-x--2------------------------|
|---0--0--0-0-0-0\----0-0-0--x-x--0------------------------|


(play verse again)x2

{Verse 2}

  They only care, when your, on top
|--------------------------------------------------------|
|--------------------------------------------------------|
|---7-7-7-7-7\-----9-9-9\---11-11--12-12-11--------------|
|---0-0-0-0-0------0-0-0----0-0-0------------------------|
|---5-5-5-5-5\-----7-7-7\---9-9-9------------------------|
|---0-0-0-0-0------0-0-0----0-0-0------------------------|


{Choras}
Thats why I... hate... the smiles...,And i hate the flies,
|--------------------------------------------------------|
|---0--0--0----------------------------------------------|
|---11-11-11---7--7--0-0-0-0-0-0-0-0-0-0-0-0-0--4-4-4-4--|
|---0--0--0----7--7--5-5-5-5-5-5-5-5-5-0-0-0-0--4-4-4-4--|
|---9--9--9----5--5--5-5-5-5-5-5-5-5-5-0-0-0-0--2-2-2-2--|
|---0--0--0----0--0--5-5-5-5-5-5-5-5-5-0-0-0-0--0-0-0-0--|

That buzz around the bull shit
|--------------------------------------------------------|
|--------------------------------------------------------|
|4-7-7-7-7-7--0-0-0-0-0--4-4-4-x-x--4--------------------|
|4-7-7-7-7-7--0-0-0-0-0--4-4-4-x-x--2--------------------|
|2-5-5-5 5-5--0-0-0-0-0--2-2-2-x-x--2--------------------|
|0-0-0-0-0-0--0-0-0-0-0--0-0-0-x-x--0--------------------|

    So I can't, wait... to die,  so all the mouthes of the...,
|----------------------------------------------------------|
|----------------------------------------------------------|
|-4-4-4/-7-------0-0-0---0-0-0-0-0-0-0-0-0-0-4-4-4-4-4-4-4-|
|-4-4-4/-7-------0-0-0---5-5-5-5-5-5-0-0-0-0-4-4-4-4-4-4-4-|
|-2-2-2/-5-------0-0-0---5-5-5-5-5-5-0-0-0-0-2-2-2-2-2-2-2-|
|-0-0-0--0-------0-0-0---5-5-5-5-5-5-0-0-0-0-0-0-0-0-0-0-0-|


  Vul--tures, can be fed...
|----------------------------------------------------------|
|----------------------------------------------------------|
|---7--7--7-7-7-7\----4-4-4\ x-x--4------------------------|
|---7--7--7-7-7-7\----4-4-4\-x-x--2------------------------|
|---5--5--5-5-5-5\----2-2-2\-x-x--2------------------------|
|---0--0--0-0-0-0\----0-0-0--x-x--0------------------------|

    Fuck you     my life   is not a game
|----------------------------------------------------------|
|----------------------------------------------------------|
|---7--7--7\-----9--9--9\---11-11--11---12--12-11----------|
|---0--0--0------0--0--0----0--0--0------------------------|
|---5--5--5\-----7--7--7\---9--9--9------------------------|
|---0--0--0------0--0--0----0--0--0------------------------|

{Choras}
Thats why I... hate... the smiles...,And i hate the flies,
|--------------------------------------------------------|
|---0--0--0----------------------------------------------|
|---11-11-11---7--7--0-0-0-0-0-0-0-0-0-0-0-0-0--4-4-4-4--|
|---0--0--0----7--7--5-5-5-5-5-5-5-5-5-0-0-0-0--4-4-4-4--|
|---9--9--9----5--5--5-5-5-5-5-5-5-5-5-0-0-0-0--2-2-2-2--|
|---0--0--0----0--0--5-5-5-5-5-5-5-5-5-0-0-0-0--0-0-0-0--|

That buzz around the bull shit
|--------------------------------------------------------|
|--------------------------------------------------------|
|4-7-7-7-7-7--0-0-0-0-0--4-4-4-x-x--4--------------------|
|4-7-7-7-7-7--0-0-0-0-0--4-4-4-x-x--2--------------------|
|2-5-5-5 5-5--0-0-0-0-0--2-2-2-x-x--2--------------------|
|0-0-0-0-0-0--0-0-0-0-0--0-0-0-x-x--0--------------------|

    So I can't, wait... to die,  so all the mouthes of the...,
|----------------------------------------------------------|
|----------------------------------------------------------|
|-4-4-4/-7-------0-0-0---0-0-0-0-0-0-0-0-0-0-4-4-4-4-4-4-4-|
|-4-4-4/-7-------0-0-0---5-5-5-5-5-5-0-0-0-0-4-4-4-4-4-4-4-|
|-2-2-2/-5-------0-0-0---5-5-5-5-5-5-0-0-0-0-2-2-2-2-2-2-2-|
|-0-0-0--0-------0-0-0---5-5-5-5-5-5-0-0-0-0-0-0-0-0-0-0-0-|

(repeat slower)
  Vul--tures, can be fed...
|-------------------------------------------------------------|
|-------------------------------------------------------------|
|---7--7--7-7-7-7\----4--4--4\ x-x--4-------------------------|
|---7--7--7-7-7-7\----4--4--4\-x-x--2-------------------------|
|---5--5--5-5-5-5\----2--2--2\-x-x--2-------------------------|
|---0--0--0-0-0-0\----0--0--0--x-x--0-------------------------|
Tap to rate this tab
# A B C D E F G H I J K L M N O P Q R S T U V W X Y Z