Song name
# A B C D E F G H I J K L M N O P Q R S T U V W X Y Z

Smile Empty Soul - Refill Me tab

Tuning: Db Ab Db Gb Bb eb

Intro/Pre Chorus
|------------------------------------------|
|------------------------------------------|
|------7-77------7-77------7-77------------|
|-00-0-7-77-00-0-7-77-00-0-7-77-777/8888/5-|
|-00-0-5-55-00-0-5-55-00-0-5-55-777/8888/5-|
|-00-0------00-0------00-0------777/8888/5-|

Lead over Intro
|---------|
|---------|
|---------|
|---------|
|-7h8p7-5-|
|---------|

Verse
|---------------------------------|
|---------------------------------|
|---------------------------------|
|-7-7-7-7-5-5-5-5-6-6-6-6-6-6-6-6-|
|-7-7-7-7-5-5-5-5-6-6-6-6-6-6-6-6-|
|-7-7-7-7-5-5-5-5-6-6-6-6-6-6-6-6-|

Chorus
|-----------------------------------------------------------------|
|-----------------------------------------------------------------|
|-----------------------------------------------------------------|
|-7-7-7-7-7-7-7-7-5-5-5-5-5-5-5-5-8-8-8-8-8-8-8-8-6-6-6-6-4-4-4-4-|
|-7-7-7-7-7-7-7-7-5-5-5-5-5-5-5-5-8-8-8-8-8-8-8-8-6-6-6-6-4-4-4-4-|
|-5-5-5-5-5-5-5-5-3-3-3-3-3-3-3-3-6-6-6-6-6-6-6-6-4-4-4-4-2-2-2-2-|

Bridge
|-------------------------------------------------|
|-------------------------------------------------|
|-3-3-3--3-33-5-5-5--5-55-7-7-7--7-77-5-5-5--5-55-|
|-3-3-3--3-33-5-5-5--5-55-7-7-7--7-77-5-5-5--5-55-|
|-1-1-1--1-11-3-3-3--3-33-5-5-5--5-55-3-3-3--3-33-|
|-------------------------------------------------|
Tap to rate this tab
# A B C D E F G H I J K L M N O P Q R S T U V W X Y Z